  0
SECTION
  2
HEADER
  9
$ACADVER
  1
AC1015
  9
$ACADMAINTVER
 70
     6
  9
$DWGCODEPAGE
  3
ANSI_1254
  9
$INSBASE
 10
0.0
 20
0.0
 30
0.0
  9
$EXTMIN
 10
0.0
 20
0.0
 30
0.0
  9
$EXTMAX
 10
279.4
 20
215.9
 30
0.0
  9
$LIMMIN
 10
0.0
 20
0.0
  9
$LIMMAX
 10
279.4
 20
215.9
  9
$ORTHOMODE
 70
     0
  9
$REGENMODE
 70
     1
  9
$FILLMODE
 70
     1
  9
$QTEXTMODE
 70
     0
  9
$MIRRTEXT
 70
     1
  9
$LTSCALE
 40
1.0
  9
$ATTMODE
 70
     1
  9
$TEXTSIZE
 40
3.5
  9
$TRACEWID
 40
1.0
  9
$TEXTSTYLE
  7
Standard
  9
$CLAYER
  8
0
  9
$CELTYPE
  6
ByLayer
  9
$CECOLOR
 62
   256
  9
$CELTSCALE
 40
1.0
  9
$DISPSILH
 70
     0
  9
$DIMSCALE
 40
1.0
  9
$DIMASZ
 40
3.5
  9
$DIMEXO
 40
1.0
  9
$DIMDLI
 40
3.75
  9
$DIMRND
 40
0.0
  9
$DIMDLE
 40
0.0
  9
$DIMEXE
 40
1.0
  9
$DIMTP
 40
0.0
  9
$DIMTM
 40
0.0
  9
$DIMTXT
 40
3.5
  9
$DIMCEN
 40
2.5
  9
$DIMTSZ
 40
0.0
  9
$DIMTOL
 70
     0
  9
$DIMLIM
 70
     0
  9
$DIMTIH
 70
     1
  9
$DIMTOH
 70
     1
  9
$DIMSE1
 70
     0
  9
$DIMSE2
 70
     0
  9
$DIMTAD
 70
     1
  9
$DIMZIN
 70
     0
  9
$DIMBLK
  1

  9
$DIMASO
 70
     1
  9
$DIMSHO
 70
     1
  9
$DIMPOST
  1

  9
$DIMAPOST
  1

  9
$DIMALT
 70
     0
  9
$DIMALTD
 70
     3
  9
$DIMALTF
 40
0.0393700787
  9
$DIMLFAC
 40
1.0
  9
$DIMTOFL
 70
     1
  9
$DIMTVP
 40
0.0
  9
$DIMTIX
 70
     0
  9
$DIMSOXD
 70
     0
  9
$DIMSAH
 70
     0
  9
$DIMBLK1
  1

  9
$DIMBLK2
  1

  9
$DIMSTYLE
  2
ISO-25
  9
$DIMCLRD
 70
     0
  9
$DIMCLRE
 70
     0
  9
$DIMCLRT
 70
     0
  9
$DIMTFAC
 40
1.0
  9
$DIMGAP
 40
1.524
  9
$DIMJUST
 70
     0
  9
$DIMSD1
 70
     0
  9
$DIMSD2
 70
     0
  9
$DIMTOLJ
 70
     0
  9
$DIMTZIN
 70
     0
  9
$DIMALTZ
 70
     0
  9
$DIMALTTZ
 70
     0
  9
$DIMUPT
 70
     0
  9
$DIMDEC
 70
     2
  9
$DIMTDEC
 70
     2
  9
$DIMALTU
 70
     2
  9
$DIMALTTD
 70
     3
  9
$DIMTXSTY
  7
Standard
  9
$DIMAUNIT
 70
     0
  9
$DIMADEC
 70
     2
  9
$DIMALTRND
 40
0.0
  9
$DIMAZIN
 70
     0
  9
$DIMDSEP
 70
    44
  9
$DIMATFIT
 70
     3
  9
$DIMFRAC
 70
     0
  9
$DIMLDRBLK
  1

  9
$DIMLUNIT
 70
     2
  9
$DIMLWD
 70
    -2
  9
$DIMLWE
 70
    -2
  9
$DIMTMOVE
 70
     0
  9
$LUNITS
 70
     2
  9
$LUPREC
 70
     2
  9
$SKETCHINC
 40
1.0
  9
$FILLETRAD
 40
10.0
  9
$AUNITS
 70
     0
  9
$AUPREC
 70
     2
  9
$MENU
  1
.
  9
$ELEVATION
 40
0.0
  9
$PELEVATION
 40
0.0
  9
$THICKNESS
 40
0.0
  9
$LIMCHECK
 70
     0
  9
$CHAMFERA
 40
0.0
  9
$CHAMFERB
 40
0.0
  9
$CHAMFERC
 40
0.0
  9
$CHAMFERD
 40
0.0
  9
$SKPOLY
 70
     0
  9
$TDCREATE
 40
2459935.709742002
  9
$TDUCREATE
 40
2459935.584742002
  9
$TDUPDATE
 40
2459935.709742188
  9
$TDUUPDATE
 40
2459935.584742188
  9
$TDINDWG
 40
0.0000000116
  9
$TDUSRTIMER
 40
0.0000000116
  9
$USRTIMER
 70
     1
  9
$ANGBASE
 50
0.0
  9
$ANGDIR
 70
     0
  9
$PDMODE
 70
     0
  9
$PDSIZE
 40
-1.0
  9
$PLINEWID
 40
0.0
  9
$SPLFRAME
 70
     0
  9
$SPLINETYPE
 70
     6
  9
$SPLINESEGS
 70
     8
  9
$HANDSEED
  5
F5
  9
$SURFTAB1
 70
     6
  9
$SURFTAB2
 70
     6
  9
$SURFTYPE
 70
     6
  9
$SURFU
 70
     6
  9
$SURFV
 70
     6
  9
$UCSBASE
  2

  9
$UCSNAME
  2

  9
$UCSORG
 10
0.0
 20
0.0
 30
0.0
  9
$UCSXDIR
 10
1.0
 20
0.0
 30
0.0
  9
$UCSYDIR
 10
0.0
 20
1.0
 30
0.0
  9
$UCSORTHOREF
  2

  9
$UCSORTHOVIEW
 70
     0
  9
$UCSORGTOP
 10
0.0
 20
0.0
 30
0.0
  9
$UCSORGBOTTOM
 10
0.0
 20
0.0
 30
0.0
  9
$UCSORGLEFT
 10
0.0
 20
0.0
 30
0.0
  9
$UCSORGRIGHT
 10
0.0
 20
0.0
 30
0.0
  9
$UCSORGFRONT
 10
0.0
 20
0.0
 30
0.0
  9
$UCSORGBACK
 10
0.0
 20
0.0
 30
0.0
  9
$PUCSBASE
  2

  9
$PUCSNAME
  2

  9
$PUCSORG
 10
0.0
 20
0.0
 30
0.0
  9
$PUCSXDIR
 10
1.0
 20
0.0
 30
0.0
  9
$PUCSYDIR
 10
0.0
 20
1.0
 30
0.0
  9
$PUCSORTHOREF
  2

  9
$PUCSORTHOVIEW
 70
     0
  9
$PUCSORGTOP
 10
0.0
 20
0.0
 30
0.0
  9
$PUCSORGBOTTOM
 10
0.0
 20
0.0
 30
0.0
  9
$PUCSORGLEFT
 10
0.0
 20
0.0
 30
0.0
  9
$PUCSORGRIGHT
 10
0.0
 20
0.0
 30
0.0
  9
$PUCSORGFRONT
 10
0.0
 20
0.0
 30
0.0
  9
$PUCSORGBACK
 10
0.0
 20
0.0
 30
0.0
  9
$USERI1
 70
     0
  9
$USERI2
 70
     0
  9
$USERI3
 70
     0
  9
$USERI4
 70
     0
  9
$USERI5
 70
     0
  9
$USERR1
 40
0.0
  9
$USERR2
 40
0.0
  9
$USERR3
 40
0.0
  9
$USERR4
 40
0.0
  9
$USERR5
 40
0.0
  9
$WORLDVIEW
 70
     1
  9
$SHADEDGE
 70
     3
  9
$SHADEDIF
 70
    70
  9
$TILEMODE
 70
     1
  9
$MAXACTVP
 70
    64
  9
$PINSBASE
 10
0.0
 20
0.0
 30
0.0
  9
$PLIMCHECK
 70
     0
  9
$PEXTMIN
 10
1.0000000000E+20
 20
1.0000000000E+20
 30
1.0000000000E+20
  9
$PEXTMAX
 10
-1.0000000000E+20
 20
-1.0000000000E+20
 30
-1.0000000000E+20
  9
$PLIMMIN
 10
0.0
 20
0.0
  9
$PLIMMAX
 10
420.0
 20
297.0
  9
$UNITMODE
 70
     0
  9
$VISRETAIN
 70
     1
  9
$PLINEGEN
 70
     0
  9
$PSLTSCALE
 70
     1
  9
$TREEDEPTH
 70
  3020
  9
$CMLSTYLE
  2
Standard
  9
$CMLJUST
 70
     0
  9
$CMLSCALE
 40
20.0
  9
$PROXYGRAPHICS
 70
     1
  9
$MEASUREMENT
 70
     1
  9
$CELWEIGHT
370
    -1
  9
$ENDCAPS
280
     0
  9
$JOINSTYLE
280
     0
  9
$LWDISPLAY
290
     1
  9
$INSUNITS
 70
     4
  9
$HYPERLINKBASE
  1

  9
$STYLESHEET
  1

  9
$XEDIT
290
     1
  9
$CEPSNTYPE
380
     0
  9
$PSTYLEMODE
290
     1
  9
$FINGERPRINTGUID
  2
{686371d0-15b1-49e1-ba7c-7fdb8160c8a7}
  9
$VERSIONGUID
  2
{FAEB1C32-E019-11D5-929B-00C0DF256EC4}
  9
$EXTNAMES
290
     1
  9
$PSVPSCALE
 40
0.0
  9
$OLESTARTUP
290
     0
  0
ENDSEC
  0
SECTION
  2
CLASSES
  0
CLASS
  1
ACDBDICTIONARYWDFLT
  2
AcDbDictionaryWithDefault
  3
ObjectDBX Classes
 90
        0
280
     0
281
     0
  0
CLASS
  1
VISUALSTYLE
  2
AcDbVisualStyle
  3
ObjectDBX Classes
 90
     4095
280
     0
281
     0
  0
CLASS
  1
MATERIAL
  2
AcDbMaterial
  3
ObjectDBX Classes
 90
     1153
280
     0
281
     0
  0
CLASS
  1
SCALE
  2
AcDbScale
  3
ObjectDBX Classes
 90
     1153
280
     0
281
     0
  0
CLASS
  1
TABLESTYLE
  2
AcDbTableStyle
  3
ObjectDBX Classes
 90
     4095
280
     0
281
     0
  0
CLASS
  1
MLEADERSTYLE
  2
AcDbMLeaderStyle
  3
ACDB_MLEADERSTYLE_CLASS
 90
     4095
280
     0
281
     0
  0
CLASS
  1
SUN
  2
AcDbSun
  3
SCENEOE
 90
     1153
280
     0
281
     0
  0
CLASS
  1
ACDBPLACEHOLDER
  2
AcDbPlaceHolder
  3
ObjectDBX Classes
 90
        0
280
     0
281
     0
  0
CLASS
  1
LAYOUT
  2
AcDbLayout
  3
ObjectDBX Classes
 90
        0
280
     0
281
     0
  0
ENDSEC
  0
SECTION
  2
TABLES
  0
TABLE
  2
VPORT
  5
8
330
0
100
AcDbSymbolTable
 70
     1
  0
VPORT
  5
29
330
8
100
AcDbSymbolTableRecord
100
AcDbViewportTableRecord
  2
*Active
 70
     0
 10
0.0
 20
0.0
 11
1.0
 21
1.0
 12
139.7
 22
107.95
 13
0.0
 23
0.0
 14
10.0
 24
10.0
 15
10.0
 25
10.0
 16
0.0
 26
0.0
 36
1.0
 17
0.0
 27
0.0
 37
0.0
 40
215.9
 41
1.2941176471
 42
50.0
 43
0.0
 44
0.0
 50
0.0
 51
0.0
 71
     0
 72
  2000
 73
     1
 74
     3
 75
     0
 76
     0
 77
     0
 78
     0
281
     0
 65
     1
110
0.0
120
0.0
130
0.0
111
1.0
121
0.0
131
0.0
112
0.0
122
1.0
132
0.0
 79
     0
146
0.0
  0
ENDTAB
  0
TABLE
  2
LTYPE
  5
5
330
0
100
AcDbSymbolTable
 70
     6
  0
LTYPE
  5
14
330
5
100
AcDbSymbolTableRecord
100
AcDbLinetypeTableRecord
  2
ByBlock
 70
     0
  3

 72
    65
 73
     0
 40
0.0
  0
LTYPE
  5
15
330
5
100
AcDbSymbolTableRecord
100
AcDbLinetypeTableRecord
  2
ByLayer
 70
     0
  3

 72
    65
 73
     0
 40
0.0
  0
LTYPE
  5
16
330
5
100
AcDbSymbolTableRecord
100
AcDbLinetypeTableRecord
  2
Continuous
 70
     0
  3
Solid line
 72
    65
 73
     0
 40
0.0
  0
LTYPE
  5
6E
330
5
100
AcDbSymbolTableRecord
100
AcDbLinetypeTableRecord
  2
HIDDEN
 70
     0
  3
Hidden __ __ __ __ __ __ __ __ __ __ __ __ __ __
 72
    65
 73
     2
 40
1.905
 49
1.27
 74
     0
 49
-0.635
 74
     0
  0
LTYPE
  5
6F
330
5
100
AcDbSymbolTableRecord
100
AcDbLinetypeTableRecord
  2
PHANTOM
 70
     0
  3
Phantom ______  __  __  ______  __  __  ______
 72
    65
 73
     6
 40
12.7
 49
6.35
 74
     0
 49
-1.27
 74
     0
 49
1.27
 74
     0
 49
-1.27
 74
     0
 49
1.27
 74
     0
 49
-1.27
 74
     0
  0
LTYPE
  5
70
330
5
100
AcDbSymbolTableRecord
100
AcDbLinetypeTableRecord
  2
CENTER
 70
     0
  3
Center ____ _ ____ _ ____ _ ____ _ ____ _ ____
 72
    65
 73
     4
 40
10.16
 49
6.35
 74
     0
 49
-1.27
 74
     0
 49
1.27
 74
     0
 49
-1.27
 74
     0
  0
LTYPE
  5
71
330
5
100
AcDbSymbolTableRecord
100
AcDbLinetypeTableRecord
  2
CENTERX2
 70
     0
  3
Center (2x) ________  __  ________  __  _____
 72
    65
 73
     4
 40
20.32
 49
12.7
 74
     0
 49
-2.54
 74
     0
 49
2.54
 74
     0
 49
-2.54
 74
     0
  0
LTYPE
  5
72
330
5
100
AcDbSymbolTableRecord
100
AcDbLinetypeTableRecord
  2
DOT2
 70
     0
  3
Dot (.5x) ........................................
 72
    65
 73
     2
 40
0.635
 49
0.0
 74
     0
 49
-0.635
 74
     0
  0
ENDTAB
  0
TABLE
  2
LAYER
  5
2
330
0
100
AcDbSymbolTable
 70
    17
  0
LAYER
  5
10
330
2
100
AcDbSymbolTableRecord
100
AcDbLayerTableRecord
  2
0
 70
     0
 62
     7
  6
Continuous
370
    -3
390
F
  0
LAYER
  5
73
330
2
100
AcDbSymbolTableRecord
100
AcDbLayerTableRecord
  2
FORMAT
 70
     0
 62
     7
  6
Continuous
370
    -3
390
F
  0
LAYER
  5
74
330
2
100
AcDbSymbolTableRecord
100
AcDbLayerTableRecord
  2
YARDIMCI_GEOMETRI
 70
     0
 62
    -6
  6
Continuous
290
     0
370
    -3
390
F
  0
LAYER
  5
75
330
2
100
AcDbSymbolTableRecord
100
AcDbLayerTableRecord
  2
SAYFA_CERCEVESI
 70
     0
 62
     7
  6
Continuous
370
    25
390
F
  0
LAYER
  5
76
330
2
100
AcDbSymbolTableRecord
100
AcDbLayerTableRecord
  2
ANTET
 70
     0
 62
     7
  6
Continuous
370
    -3
390
F
  0
LAYER
  5
77
330
2
100
AcDbSymbolTableRecord
100
AcDbLayerTableRecord
  2
OLCU
 70
     0
 62
   150
  6
Continuous
370
    -3
390
F
  0
LAYER
  5
78
330
2
100
AcDbSymbolTableRecord
100
AcDbLayerTableRecord
  2
METIN
 70
     0
 62
    96
  6
Continuous
370
    -3
390
F
  0
LAYER
  5
79
330
2
100
AcDbSymbolTableRecord
100
AcDbLayerTableRecord
  2
BALON
 70
     0
 62
     5
  6
Continuous
370
    -3
390
F
  0
LAYER
  5
7A
330
2
100
AcDbSymbolTableRecord
100
AcDbLayerTableRecord
  2
VURGU
 70
     0
 62
     7
  6
Continuous
370
    -3
390
F
  0
LAYER
  5
7B
330
2
100
AcDbSymbolTableRecord
100
AcDbLayerTableRecord
  2
SILIK
 70
     0
 62
     7
  6
Continuous
370
    -3
390
F
  0
LAYER
  5
7C
330
2
100
AcDbSymbolTableRecord
100
AcDbLayerTableRecord
  2
MODEL
 70
     0
 62
     7
  6
Continuous
370
    -3
390
F
  0
LAYER
  5
7D
330
2
100
AcDbSymbolTableRecord
100
AcDbLayerTableRecord
  2
DETAYLANDıRMA
 70
     0
 62
   190
  6
Continuous
370
    -3
390
F
  0
LAYER
  5
7E
330
2
100
AcDbSymbolTableRecord
100
AcDbLayerTableRecord
  2
TOLERANS
 70
     0
 62
   230
  6
Continuous
370
    -3
390
F
  0
LAYER
  5
7F
330
2
100
AcDbSymbolTableRecord
100
AcDbLayerTableRecord
  2
MERKEZ_CIZGILERI
 70
     0
 62
    30
  6
Continuous
370
    -3
390
F
  0
LAYER
  5
80
330
2
100
AcDbSymbolTableRecord
100
AcDbLayerTableRecord
  2
KESIT-DETAY_CIZGILERI
 70
     0
 62
     7
  6
Continuous
370
    -3
390
F
  0
LAYER
  5
81
330
2
100
AcDbSymbolTableRecord
100
AcDbLayerTableRecord
  2
\U+041E\U+0421\U+0415\U+0412\U+042B\U+0415
 70
     0
 62
     7
  6
Continuous
370
    -3
390
F
  0
LAYER
  5
82
330
2
100
AcDbSymbolTableRecord
100
AcDbLayerTableRecord
  2
\U+0412\U+041E\U+0414\U+042F\U+041D\U+042B\U+0415_\U+0417\U+041D\U+0410\U+041A\U+0418
 70
     0
 62
    11
  6
Continuous
370
    -3
390
F
  0
ENDTAB
  0
TABLE
  2
STYLE
  5
3
330
0
100
AcDbSymbolTable
 70
     1
  0
STYLE
  5
11
330
3
100
AcDbSymbolTableRecord
100
AcDbTextStyleTableRecord
  2
Standard
 70
     0
 40
0.0
 41
1.0
 50
0.0
 71
     0
 42
3.5
  3
txt
  4

  0
ENDTAB
  0
TABLE
  2
VIEW
  5
6
330
0
100
AcDbSymbolTable
 70
     0
  0
ENDTAB
  0
TABLE
  2
UCS
  5
7
330
0
100
AcDbSymbolTable
 70
     0
  0
ENDTAB
  0
TABLE
  2
APPID
  5
9
330
0
100
AcDbSymbolTable
 70
     1
  0
APPID
  5
12
330
9
100
AcDbSymbolTableRecord
100
AcDbRegAppTableRecord
  2
ACAD
 70
     0
  0
ENDTAB
  0
TABLE
  2
DIMSTYLE
  5
A
330
0
100
AcDbSymbolTable
 70
     1
100
AcDbDimStyleTable
  0
DIMSTYLE
105
27
330
A
100
AcDbSymbolTableRecord
100
AcDbDimStyleTableRecord
  2
ISO-25
 70
     0
 41
2.5
 42
0.625
 43
3.75
 44
1.25
 73
     0
 74
     0
 77
     1
 78
     8
140
2.5
141
2.5
143
0.0393700787
147
0.625
171
     3
172
     1
178
     0
271
     2
272
     2
274
     3
278
    44
283
     0
284
     8
340
11
  0
ENDTAB
  0
TABLE
  2
BLOCK_RECORD
  5
1
330
0
100
AcDbSymbolTable
 70
     2
  0
BLOCK_RECORD
  5
1F
330
1
100
AcDbSymbolTableRecord
100
AcDbBlockTableRecord
  2
*Model_Space
340
22
  0
BLOCK_RECORD
  5
1B
330
1
100
AcDbSymbolTableRecord
100
AcDbBlockTableRecord
  2
*Paper_Space
340
1E
  0
BLOCK_RECORD
  5
23
330
1
100
AcDbSymbolTableRecord
100
AcDbBlockTableRecord
  2
*Paper_Space0
340
26
  0
BLOCK_RECORD
  5
88
330
1
100
AcDbSymbolTableRecord
100
AcDbBlockTableRecord
  2
SW_CENTERMARKSYMBOL_0
340
0
102
{BLKREFS
331
93
102
}
  0
ENDTAB
  0
ENDSEC
  0
SECTION
  2
BLOCKS
  0
BLOCK
  5
20
330
1F
100
AcDbEntity
  8
0
100
AcDbBlockBegin
  2
*Model_Space
 70
     0
 10
0.0
 20
0.0
 30
0.0
  3
*Model_Space
  1

  0
ENDBLK
  5
21
330
1F
100
AcDbEntity
  8
0
100
AcDbBlockEnd
  0
BLOCK
  5
1C
330
1B
100
AcDbEntity
 67
     1
  8
0
100
AcDbBlockBegin
  2
*Paper_Space
 70
     0
 10
0.0
 20
0.0
 30
0.0
  3
*Paper_Space
  1

  0
ENDBLK
  5
1D
330
1B
100
AcDbEntity
 67
     1
  8
0
100
AcDbBlockEnd
  0
BLOCK
  5
24
330
23
100
AcDbEntity
  8
0
100
AcDbBlockBegin
  2
*Paper_Space0
 70
     0
 10
0.0
 20
0.0
 30
0.0
  3
*Paper_Space0
  1

  0
ENDBLK
  5
25
330
23
100
AcDbEntity
  8
0
100
AcDbBlockEnd
  0
BLOCK
  5
89
330
88
100
AcDbEntity
  8
0
100
AcDbBlockBegin
  2
SW_CENTERMARKSYMBOL_0
 70
     0
 10
0.0
 20
0.0
 30
0.0
  3
SW_CENTERMARKSYMBOL_0
  1

  0
LINE
  5
8B
330
88
100
AcDbEntity
  8
FORMAT
 62
     0
100
AcDbLine
 10
0.0
 20
0.0
 30
0.0
 11
0.0
 21
2.5
 31
0.0
  0
LINE
  5
8C
330
88
100
AcDbEntity
  8
FORMAT
 62
     0
100
AcDbLine
 10
0.0
 20
0.0
 30
0.0
 11
-2.5
 21
0.0
 31
0.0
  0
LINE
  5
8D
330
88
100
AcDbEntity
  8
FORMAT
 62
     0
100
AcDbLine
 10
0.0
 20
0.0
 30
0.0
 11
0.0
 21
-2.5
 31
0.0
  0
LINE
  5
8E
330
88
100
AcDbEntity
  8
FORMAT
 62
     0
100
AcDbLine
 10
0.0
 20
0.0
 30
0.0
 11
2.5
 21
0.0
 31
0.0
  0
LINE
  5
8F
330
88
100
AcDbEntity
  8
FORMAT
 62
     0
100
AcDbLine
 10
0.0
 20
5.0
 30
0.0
 11
0.0
 21
180.0
 31
0.0
  0
LINE
  5
90
330
88
100
AcDbEntity
  8
FORMAT
 62
     0
100
AcDbLine
 10
-5.0
 20
0.0
 30
0.0
 11
-180.0
 21
0.0
 31
0.0
  0
LINE
  5
91
330
88
100
AcDbEntity
  8
FORMAT
 62
     0
100
AcDbLine
 10
0.0
 20
-5.0
 30
0.0
 11
0.0
 21
-180.0
 31
0.0
  0
LINE
  5
92
330
88
100
AcDbEntity
  8
FORMAT
 62
     0
100
AcDbLine
 10
5.0
 20
0.0
 30
0.0
 11
180.0
 21
0.0
 31
0.0
  0
ENDBLK
  5
8A
330
88
100
AcDbEntity
  8
0
100
AcDbBlockEnd
  0
ENDSEC
  0
SECTION
  2
ENTITIES
  0
CIRCLE
  5
83
330
1F
100
AcDbEntity
  8
0
  6
Continuous
 62
     7
370
    25
100
AcDbCircle
 10
137.9424909615
 20
108.5958316346
 30
0.0
 40
136.5
  0
CIRCLE
  5
84
330
1F
100
AcDbEntity
  8
0
  6
Continuous
 62
     7
370
    25
100
AcDbCircle
 10
137.9424909615
 20
108.5958316346
 30
0.0
 40
123.8
  0
CIRCLE
  5
85
330
1F
100
AcDbEntity
  8
0
  6
Continuous
 62
     7
370
    25
100
AcDbCircle
 10
137.9424909615
 20
108.5958316346
 30
0.0
 40
137.0000000000001
  0
CIRCLE
  5
86
330
1F
100
AcDbEntity
  8
0
  6
Continuous
 62
     7
370
    25
100
AcDbCircle
 10
137.9424909615
 20
108.5958316346
 30
0.0
 40
177.5
  0
CIRCLE
  5
87
330
1F
100
AcDbEntity
  8
0
  6
Continuous
 62
     7
370
    25
100
AcDbCircle
 10
137.9424909615
 20
108.5958316346
 30
0.0
 40
102.3000000000001
  0
INSERT
  5
93
330
1F
100
AcDbEntity
  8
FORMAT
 62
     7
100
AcDbBlockReference
  2
SW_CENTERMARKSYMBOL_0
 10
137.9424909615
 20
108.5958316346
 30
0.0
  0
LINE
  5
94
330
1F
100
AcDbEntity
  8
0
  6
Continuous
 62
     7
370
    25
100
AcDbLine
 10
-909.2135283253
 20
286.0958316346
 30
0.0
 11
-994.2135283253
 21
233.5958316346
 31
0.0
  0
LINE
  5
95
330
1F
100
AcDbEntity
  8
0
  6
Continuous
 62
     7
370
    25
100
AcDbLine
 10
-994.2135283253
 20
-16.4041683654
 30
0.0
 11
-909.2135283253
 21
-68.9041683654
 31
0.0
  0
LINE
  5
96
330
1F
100
AcDbEntity
  8
0
  6
Continuous
 62
     7
370
    25
100
AcDbLine
 10
-754.2135283253
 20
286.0958316346
 30
0.0
 11
-909.2135283253
 21
286.0958316346
 31
0.0
  0
LINE
  5
97
330
1F
100
AcDbEntity
  8
0
  6
Continuous
 62
     7
370
    25
100
AcDbLine
 10
-909.2135283253
 20
-68.9041683654
 30
0.0
 11
-754.2135283253
 21
-68.9041683654
 31
0.0
  0
LINE
  5
98
330
1F
100
AcDbEntity
  8
0
  6
Continuous
 62
     7
370
    25
100
AcDbLine
 10
-753.2135283253
 20
245.5958316346
 30
0.0
 11
-754.2135283253
 21
245.5958316346
 31
0.0
  0
LINE
  5
99
330
1F
100
AcDbEntity
  8
0
  6
Continuous
 62
     7
370
    25
100
AcDbLine
 10
-754.2135283253
 20
-28.4041683654
 30
0.0
 11
-753.2135283253
 21
-28.4041683654
 31
0.0
  0
LINE
  5
9A
330
1F
100
AcDbEntity
  8
0
  6
Continuous
 62
     7
370
    25
100
AcDbLine
 10
-364.2135283253
 20
245.0958316346
 30
0.0
 11
-753.2135283253
 21
245.0958316346
 31
0.0
  0
LINE
  5
9B
330
1F
100
AcDbEntity
  8
0
  6
Continuous
 62
     7
370
    25
100
AcDbLine
 10
-753.2135283253
 20
-27.9041683654
 30
0.0
 11
-364.2135283253
 21
-27.9041683654
 31
0.0
  0
LINE
  5
9C
330
1F
100
AcDbEntity
  8
0
  6
Continuous
 62
     7
370
    25
100
AcDbLine
 10
-994.2135283253
 20
233.5958316346
 30
0.0
 11
-1129.2135283253
 21
233.5958316346
 31
0.0
  0
LINE
  5
9D
330
1F
100
AcDbEntity
  8
0
  6
Continuous
 62
     7
370
    25
100
AcDbLine
 10
-1129.2135283253
 20
-16.4041683654
 30
0.0
 11
-994.2135283253
 21
-16.4041683654
 31
0.0
  0
LINE
  5
9E
330
1F
100
AcDbEntity
  8
0
  6
Continuous
 62
     7
370
    25
100
AcDbLine
 10
-994.2135283253
 20
233.5958316346
 30
0.0
 11
-994.2135283253
 21
-16.4041683654
 31
0.0
  0
LINE
  5
9F
330
1F
100
AcDbEntity
  8
0
  6
Continuous
 62
     7
370
    25
100
AcDbLine
 10
-909.2135283253
 20
286.0958316346
 30
0.0
 11
-909.2135283253
 21
-68.9041683654
 31
0.0
  0
LINE
  5
A0
330
1F
100
AcDbEntity
  8
0
  6
Continuous
 62
     7
370
    25
100
AcDbLine
 10
-754.2135283253
 20
286.0958316346
 30
0.0
 11
-754.2135283253
 21
-68.9041683654
 31
0.0
  0
LINE
  5
A1
330
1F
100
AcDbEntity
  8
0
  6
Continuous
 62
     7
370
    25
100
AcDbLine
 10
-753.2135283253
 20
245.5958316346
 30
0.0
 11
-753.2135283253
 21
-28.4041683654
 31
0.0
  0
LINE
  5
A2
330
1F
100
AcDbEntity
  8
0
  6
Continuous
 62
     7
370
    25
100
AcDbLine
 10
-364.2135283253
 20
245.0958316346
 30
0.0
 11
-364.2135283253
 21
-27.9041683654
 31
0.0
  0
LINE
  5
A3
330
1F
100
AcDbEntity
  8
0
  6
Continuous
 62
     7
370
    25
100
AcDbLine
 10
-1129.2135283253
 20
233.5958316346
 30
0.0
 11
-1129.2135283253
 21
-16.4041683654
 31
0.0
  0
LINE
  5
A4
330
1F
100
AcDbEntity
  8
0
  6
Continuous
 62
     7
370
    25
100
AcDbLine
 10
1162.8351132748
 20
-68.9041683654
 30
0.0
 11
1247.8351132748
 21
-16.4041683654
 31
0.0
  0
LINE
  5
A5
330
1F
100
AcDbEntity
  8
0
  6
Continuous
 62
     7
370
    25
100
AcDbLine
 10
1247.8351132748
 20
233.5958316346
 30
0.0
 11
1162.8351132748
 21
286.0958316346
 31
0.0
  0
LINE
  5
A6
330
1F
100
AcDbEntity
  8
0
  6
Continuous
 62
     7
370
    25
100
AcDbLine
 10
1007.8351132748
 20
-68.9041683654
 30
0.0
 11
1162.8351132748
 21
-68.9041683654
 31
0.0
  0
LINE
  5
A7
330
1F
100
AcDbEntity
  8
0
  6
Continuous
 62
     7
370
    25
100
AcDbLine
 10
1162.8351132748
 20
286.0958316346
 30
0.0
 11
1007.8351132748
 21
286.0958316346
 31
0.0
  0
LINE
  5
A8
330
1F
100
AcDbEntity
  8
0
  6
Continuous
 62
     7
370
    25
100
AcDbLine
 10
1006.8351132748
 20
-28.4041683654
 30
0.0
 11
1007.8351132748
 21
-28.4041683654
 31
0.0
  0
LINE
  5
A9
330
1F
100
AcDbEntity
  8
0
  6
Continuous
 62
     7
370
    25
100
AcDbLine
 10
1007.8351132748
 20
245.5958316346
 30
0.0
 11
1006.8351132748
 21
245.5958316346
 31
0.0
  0
LINE
  5
AA
330
1F
100
AcDbEntity
  8
0
  6
Continuous
 62
     7
370
    25
100
AcDbLine
 10
617.8351132748
 20
-27.9041683654
 30
0.0
 11
1006.8351132748
 21
-27.9041683654
 31
0.0
  0
LINE
  5
AB
330
1F
100
AcDbEntity
  8
0
  6
Continuous
 62
     7
370
    25
100
AcDbLine
 10
1006.8351132748
 20
245.0958316346
 30
0.0
 11
617.8351132748
 21
245.0958316346
 31
0.0
  0
LINE
  5
AC
330
1F
100
AcDbEntity
  8
0
  6
Continuous
 62
     7
370
    25
100
AcDbLine
 10
1247.8351132748
 20
-16.4041683654
 30
0.0
 11
1382.8351132748
 21
-16.4041683654
 31
0.0
  0
LINE
  5
AD
330
1F
100
AcDbEntity
  8
0
  6
Continuous
 62
     7
370
    25
100
AcDbLine
 10
1382.8351132748
 20
233.5958316346
 30
0.0
 11
1247.8351132748
 21
233.5958316346
 31
0.0
  0
LINE
  5
AE
330
1F
100
AcDbEntity
  8
0
  6
Continuous
 62
     7
370
    25
100
AcDbLine
 10
1247.8351132748
 20
108.5958316346
 30
0.0
 11
1247.8351132748
 21
233.5958316346
 31
0.0
  0
LINE
  5
AF
330
1F
100
AcDbEntity
  8
0
  6
Continuous
 62
     7
370
    25
100
AcDbLine
 10
1247.8351132748
 20
-16.4041683654
 30
0.0
 11
1247.8351132748
 21
108.5958316346
 31
0.0
  0
LINE
  5
B0
330
1F
100
AcDbEntity
  8
0
  6
Continuous
 62
     7
370
    25
100
AcDbLine
 10
1162.8351132748
 20
108.5958316346
 30
0.0
 11
1162.8351132748
 21
286.0958316346
 31
0.0
  0
LINE
  5
B1
330
1F
100
AcDbEntity
  8
0
  6
Continuous
 62
     7
370
    25
100
AcDbLine
 10
1162.8351132748
 20
-68.9041683654
 30
0.0
 11
1162.8351132748
 21
108.5958316346
 31
0.0
  0
LINE
  5
B2
330
1F
100
AcDbEntity
  8
0
  6
Continuous
 62
     7
370
    25
100
AcDbLine
 10
1007.8351132748
 20
108.5958316346
 30
0.0
 11
1007.8351132748
 21
286.0958316346
 31
0.0
  0
LINE
  5
B3
330
1F
100
AcDbEntity
  8
0
  6
Continuous
 62
     7
370
    25
100
AcDbLine
 10
1007.8351132748
 20
-68.9041683654
 30
0.0
 11
1007.8351132748
 21
108.5958316346
 31
0.0
  0
LINE
  5
B4
330
1F
100
AcDbEntity
  8
0
  6
Continuous
 62
     7
370
    25
100
AcDbLine
 10
1006.8351132748
 20
108.5958316346
 30
0.0
 11
1006.8351132748
 21
245.5958316346
 31
0.0
  0
LINE
  5
B5
330
1F
100
AcDbEntity
  8
0
  6
Continuous
 62
     7
370
    25
100
AcDbLine
 10
1006.8351132748
 20
-28.4041683654
 30
0.0
 11
1006.8351132748
 21
108.5958316346
 31
0.0
  0
LINE
  5
B6
330
1F
100
AcDbEntity
  8
0
  6
Continuous
 62
     7
370
    25
100
AcDbLine
 10
617.8351132748
 20
108.5958316346
 30
0.0
 11
617.8351132748
 21
245.0958316346
 31
0.0
  0
LINE
  5
B7
330
1F
100
AcDbEntity
  8
0
  6
Continuous
 62
     7
370
    25
100
AcDbLine
 10
617.8351132748
 20
-27.9041683654
 30
0.0
 11
617.8351132748
 21
108.5958316346
 31
0.0
  0
LINE
  5
B8
330
1F
100
AcDbEntity
  8
0
  6
Continuous
 62
     7
370
    25
100
AcDbLine
 10
1382.8351132748
 20
108.5958316346
 30
0.0
 11
1382.8351132748
 21
233.5958316346
 31
0.0
  0
LINE
  5
B9
330
1F
100
AcDbEntity
  8
0
  6
Continuous
 62
     7
370
    25
100
AcDbLine
 10
1382.8351132748
 20
-16.4041683654
 30
0.0
 11
1382.8351132748
 21
108.5958316346
 31
0.0
  0
LINE
  5
BA
330
1F
100
AcDbEntity
  8
0
  6
Continuous
 62
     7
370
    25
100
AcDbLine
 10
-39.5575090385
 20
-913.3742204292
 30
0.0
 11
12.9424909615
 21
-998.3742204292
 31
0.0
  0
LINE
  5
BB
330
1F
100
AcDbEntity
  8
0
  6
Continuous
 62
     7
370
    25
100
AcDbLine
 10
262.9424909615
 20
-998.3742204292
 30
0.0
 11
315.4424909615
 21
-913.3742204292
 31
0.0
  0
LINE
  5
BC
330
1F
100
AcDbEntity
  8
0
  6
Continuous
 62
     7
370
    25
100
AcDbLine
 10
-39.5575090385
 20
-758.3742204292
 30
0.0
 11
-39.5575090385
 21
-913.3742204292
 31
0.0
  0
LINE
  5
BD
330
1F
100
AcDbEntity
  8
0
  6
Continuous
 62
     7
370
    25
100
AcDbLine
 10
315.4424909615
 20
-913.3742204292
 30
0.0
 11
315.4424909615
 21
-758.3742204292
 31
0.0
  0
LINE
  5
BE
330
1F
100
AcDbEntity
  8
0
  6
Continuous
 62
     7
370
    25
100
AcDbLine
 10
0.9424909615
 20
-757.3742204292
 30
0.0
 11
0.9424909615
 21
-758.3742204292
 31
0.0
  0
LINE
  5
BF
330
1F
100
AcDbEntity
  8
0
  6
Continuous
 62
     7
370
    25
100
AcDbLine
 10
274.9424909615
 20
-758.3742204292
 30
0.0
 11
274.9424909615
 21
-757.3742204292
 31
0.0
  0
LINE
  5
C0
330
1F
100
AcDbEntity
  8
0
  6
Continuous
 62
     7
370
    25
100
AcDbLine
 10
1.4424909615
 20
-368.3742204292
 30
0.0
 11
1.4424909615
 21
-757.3742204292
 31
0.0
  0
LINE
  5
C1
330
1F
100
AcDbEntity
  8
0
  6
Continuous
 62
     7
370
    25
100
AcDbLine
 10
274.4424909615
 20
-757.3742204292
 30
0.0
 11
274.4424909615
 21
-368.3742204292
 31
0.0
  0
LINE
  5
C2
330
1F
100
AcDbEntity
  8
0
  6
Continuous
 62
     7
370
    25
100
AcDbLine
 10
12.9424909615
 20
-998.3742204292
 30
0.0
 11
12.9424909615
 21
-1133.3742204292
 31
0.0
  0
LINE
  5
C3
330
1F
100
AcDbEntity
  8
0
  6
Continuous
 62
     7
370
    25
100
AcDbLine
 10
262.9424909615
 20
-1133.3742204292
 30
0.0
 11
262.9424909615
 21
-998.3742204292
 31
0.0
  0
LINE
  5
C4
330
1F
100
AcDbEntity
  8
0
  6
Continuous
 62
     7
370
    25
100
AcDbLine
 10
12.9424909615
 20
-998.3742204292
 30
0.0
 11
262.9424909615
 21
-998.3742204292
 31
0.0
  0
LINE
  5
C5
330
1F
100
AcDbEntity
  8
0
  6
Continuous
 62
     7
370
    25
100
AcDbLine
 10
-39.5575090385
 20
-913.3742204292
 30
0.0
 11
315.4424909615
 21
-913.3742204292
 31
0.0
  0
LINE
  5
C6
330
1F
100
AcDbEntity
  8
0
  6
Continuous
 62
     7
370
    25
100
AcDbLine
 10
-39.5575090385
 20
-758.3742204292
 30
0.0
 11
315.4424909615
 21
-758.3742204292
 31
0.0
  0
LINE
  5
C7
330
1F
100
AcDbEntity
  8
0
  6
Continuous
 62
     7
370
    25
100
AcDbLine
 10
0.9424909615
 20
-757.3742204292
 30
0.0
 11
274.9424909615
 21
-757.3742204292
 31
0.0
  0
LINE
  5
C8
330
1F
100
AcDbEntity
  8
0
  6
Continuous
 62
     7
370
    25
100
AcDbLine
 10
1.4424909615
 20
-368.3742204292
 30
0.0
 11
274.4424909615
 21
-368.3742204292
 31
0.0
  0
LINE
  5
C9
330
1F
100
AcDbEntity
  8
0
  6
Continuous
 62
     7
370
    25
100
AcDbLine
 10
12.9424909615
 20
-1133.3742204292
 30
0.0
 11
262.9424909615
 21
-1133.3742204292
 31
0.0
  0
LINE
  5
CA
330
1F
100
AcDbEntity
  8
0
  6
Continuous
 62
     7
370
    25
100
AcDbLine
 10
315.4424909615
 20
1105.0683293494
 30
0.0
 11
262.9424909615
 21
1190.0683293494
 31
0.0
  0
LINE
  5
CB
330
1F
100
AcDbEntity
  8
0
  6
Continuous
 62
     7
370
    25
100
AcDbLine
 10
12.9424909615
 20
1190.0683293494
 30
0.0
 11
-39.5575090385
 21
1105.0683293494
 31
0.0
  0
LINE
  5
CC
330
1F
100
AcDbEntity
  8
0
  6
Continuous
 62
     7
370
    25
100
AcDbLine
 10
315.4424909615
 20
950.0683293494
 30
0.0
 11
315.4424909615
 21
1105.0683293494
 31
0.0
  0
LINE
  5
CD
330
1F
100
AcDbEntity
  8
0
  6
Continuous
 62
     7
370
    25
100
AcDbLine
 10
-39.5575090385
 20
1105.0683293494
 30
0.0
 11
-39.5575090385
 21
950.0683293494
 31
0.0
  0
LINE
  5
CE
330
1F
100
AcDbEntity
  8
0
  6
Continuous
 62
     7
370
    25
100
AcDbLine
 10
274.9424909615
 20
949.0683293494
 30
0.0
 11
274.9424909615
 21
950.0683293494
 31
0.0
  0
LINE
  5
CF
330
1F
100
AcDbEntity
  8
0
  6
Continuous
 62
     7
370
    25
100
AcDbLine
 10
0.9424909615
 20
950.0683293494
 30
0.0
 11
0.9424909615
 21
949.0683293494
 31
0.0
  0
LINE
  5
D0
330
1F
100
AcDbEntity
  8
0
  6
Continuous
 62
     7
370
    25
100
AcDbLine
 10
274.4424909615
 20
560.0683293494
 30
0.0
 11
274.4424909615
 21
949.0683293494
 31
0.0
  0
LINE
  5
D1
330
1F
100
AcDbEntity
  8
0
  6
Continuous
 62
     7
370
    25
100
AcDbLine
 10
1.4424909615
 20
949.0683293494
 30
0.0
 11
1.4424909615
 21
560.0683293494
 31
0.0
  0
LINE
  5
D2
330
1F
100
AcDbEntity
  8
0
  6
Continuous
 62
     7
370
    25
100
AcDbLine
 10
262.9424909615
 20
1190.0683293494
 30
0.0
 11
262.9424909615
 21
1325.0683293494
 31
0.0
  0
LINE
  5
D3
330
1F
100
AcDbEntity
  8
0
  6
Continuous
 62
     7
370
    25
100
AcDbLine
 10
12.9424909615
 20
1325.0683293494
 30
0.0
 11
12.9424909615
 21
1190.0683293494
 31
0.0
  0
LINE
  5
D4
330
1F
100
AcDbEntity
  8
0
  6
Continuous
 62
     7
370
    25
100
AcDbLine
 10
262.9424909615
 20
1190.0683293494
 30
0.0
 11
12.9424909615
 21
1190.0683293494
 31
0.0
  0
LINE
  5
D5
330
1F
100
AcDbEntity
  8
0
  6
Continuous
 62
     7
370
    25
100
AcDbLine
 10
315.4424909615
 20
1105.0683293494
 30
0.0
 11
-39.5575090385
 21
1105.0683293494
 31
0.0
  0
LINE
  5
D6
330
1F
100
AcDbEntity
  8
0
  6
Continuous
 62
     7
370
    25
100
AcDbLine
 10
315.4424909615
 20
950.0683293494
 30
0.0
 11
-39.5575090385
 21
950.0683293494
 31
0.0
  0
LINE
  5
D7
330
1F
100
AcDbEntity
  8
0
  6
Continuous
 62
     7
370
    25
100
AcDbLine
 10
274.9424909615
 20
949.0683293494
 30
0.0
 11
0.9424909615
 21
949.0683293494
 31
0.0
  0
LINE
  5
D8
330
1F
100
AcDbEntity
  8
0
  6
Continuous
 62
     7
370
    25
100
AcDbLine
 10
274.4424909615
 20
560.0683293494
 30
0.0
 11
1.4424909615
 21
560.0683293494
 31
0.0
  0
LINE
  5
D9
330
1F
100
AcDbEntity
  8
0
  6
Continuous
 62
     7
370
    25
100
AcDbLine
 10
262.9424909615
 20
1325.0683293494
 30
0.0
 11
12.9424909615
 21
1325.0683293494
 31
0.0
  0
LINE
  5
DA
330
1F
100
AcDbEntity
  8
0
  6
Continuous
 62
     7
370
    25
100
AcDbLine
 10
546.905866244
 20
-540.8222313624
 30
0.0
 11
821.9704041255
 21
-699.6136091119
 31
0.0
  0
LINE
  5
DB
330
1F
100
AcDbEntity
  8
0
  6
Continuous
 62
     7
370
    25
100
AcDbLine
 10
958.4593111304
 20
-463.182269682
 30
0.0
 11
683.3947732488
 21
-304.3908919325
 31
0.0
  0
LINE
  5
DC
330
1F
100
AcDbEntity
  8
0
  6
Continuous
 62
     7
370
    25
100
AcDbLine
 10
802.1791768877
 20
-735.5298165254
 30
0.0
 11
911.7807279716
 21
-798.8014451917
 31
0.0
  0
LINE
  5
DD
330
1F
100
AcDbEntity
  8
0
  6
Continuous
 62
     7
370
    25
100
AcDbLine
 10
1089.2663030145
 20
-491.3540990466
 30
0.0
 11
979.6647519306
 21
-428.0824703803
 31
0.0
  0
LINE
  5
DE
330
1F
100
AcDbEntity
  8
0
  6
Continuous
 62
     7
370
    25
100
AcDbLine
 10
821.7204244424
 20
-700.0466335431
 30
0.0
 11
822.4275312236
 21
-700.454837599
 31
0.0
  0
LINE
  5
DF
330
1F
100
AcDbEntity
  8
0
  6
Continuous
 62
     7
370
    25
100
AcDbLine
 10
959.4163975947
 20
-463.1574493067
 30
0.0
 11
958.7092908135
 21
-462.7492452508
 31
0.0
  0
LINE
  5
E0
330
1F
100
AcDbEntity
  8
0
  6
Continuous
 62
     7
370
    25
100
AcDbLine
 10
959.4604117347
 20
-805.7427024112
 30
0.0
 11
1031.7099131908
 21
-792.9194339787
 31
0.0
  0
LINE
  5
E1
330
1F
100
AcDbEntity
  8
0
  6
Continuous
 62
     7
370
    25
100
AcDbLine
 10
1144.1469464221
 20
-598.1516762776
 30
0.0
 11
1119.1209989231
 21
-529.1724864757
 31
0.0
  0
LINE
  5
E2
330
1F
100
AcDbEntity
  8
0
  6
Continuous
 62
     7
370
    25
100
AcDbLine
 10
1012.5047905552
 20
-796.3280726249
 30
0.0
 11
1093.5920865643
 21
-843.1387722172
 31
0.0
  0
LINE
  5
E3
330
1F
100
AcDbEntity
  8
0
  6
Continuous
 62
     7
370
    25
100
AcDbLine
 10
1218.5819281439
 20
-626.626556622
 30
0.0
 11
1137.4946321347
 21
-579.8158570297
 31
0.0
  0
LWPOLYLINE
  5
E4
330
1F
100
AcDbEntity
  8
0
  6
Continuous
 62
     7
370
    25
100
AcDbPolyline
 90
       17
 70
   128
 43
0.0
 10
986.7349332599
 20
-525.6780857651
 10
986.611050435
 20
-520.1043558124
 10
986.2397199657
 20
-514.6879656097
 10
985.6218950519
 20
-509.442818953
 10
984.7591616414
 20
-504.3823800584
 10
983.6537343585
 20
-499.5196390002
 10
982.3084508191
 20
-494.8670783647
 10
980.7267643468
 20
-490.4366412085
 10
978.9127351081
 20
-486.2397004001
 10
976.87101969
 20
-482.2870294265
 10
974.6068591468
 20
-478.5887747373
 10
972.126065546
 20
-475.1544296993
 10
969.4350070492
 20
-471.9928102269
 10
966.5405915651
 20
-469.112032152
 10
963.4502490166
 20
-466.5194903906
 10
960.1719122688
 20
-464.2218399602
 10
958.4593111304
 20
-463.182269682
  0
LWPOLYLINE
  5
E5
330
1F
100
AcDbEntity
  8
0
  6
Continuous
 62
     7
370
    25
100
AcDbPolyline
 90
       48
 70
   128
 43
0.0
 10
821.9704041255
 20
-699.6136091119
 10
823.7157184909
 20
-700.5708998974
 10
827.344336331
 20
-702.2618456807
 10
831.1343418977
 20
-703.64253555
 10
835.0760063009
 20
-704.7094252943
 10
839.1592113446
 20
-705.4597762227
 10
843.3734755001
 20
-705.8916621954
 10
847.7079808117
 20
-706.0039745671
 10
852.1516006665
 20
-705.7964250337
 10
856.692928356
 20
-705.2695463717
 10
861.3203063571
 20
-704.4246910713
 10
866.021856257
 20
-703.2640278637
 10
870.7855092444
 20
-701.7905361549
 10
875.5990370904
 20
-700.0079983769
 10
880.4500835382
 20
-697.9209902786
 10
885.326196021
 20
-695.5348691799
 10
890.214857628
 20
-692.8557602194
 10
895.103519235
 20
-689.8905406313
 10
899.9796317177
 20
-686.6468220919
 10
904.8306781655
 20
-683.1329311802
 10
909.6442060115
 20
-679.3578880036
 10
914.4078589989
 20
-675.3313830439
 10
919.1094088988
 20
-671.0637522815
 10
923.7367868999
 20
-666.5659506635
 10
928.2781145894
 20
-661.8495239821
 10
932.7217344442
 20
-656.9265792368
 10
937.0562397558
 20
-651.8097535564
 10
941.2705039113
 20
-646.5121817588
 10
945.353708955
 20
-641.047462635
 10
949.2953733582
 20
-635.4296240405
 10
953.0853789249
 20
-629.6730868865
 10
956.7139967651
 20
-623.7926281212
 10
960.1719122688
 20
-617.803342798
 10
963.4502490166
 20
-611.7206053264
 10
966.5405915651
 20
-605.5600300062
 10
969.4350070492
 20
-599.337430946
 10
972.126065546
 20
-593.0687814683
 10
974.6068591468
 20
-586.7701731064
 10
976.87101969
 20
-580.4577742976
 10
978.9127351081
 20
-574.1477888791
 10
980.7267643468
 20
-567.856414493
 10
982.3084508191
 20
-561.5998010071
 10
983.6537343585
 20
-555.3940090585
 10
984.7591616414
 20
-549.2549688262
 10
985.6218950519
 20
-543.1984391383
 10
986.2397199657
 20
-537.2399670197
 10
986.611050435
 20
-531.3948477828
 10
986.7349332599
 20
-525.6780857651
  0
LWPOLYLINE
  5
E6
330
1F
100
AcDbEntity
  8
0
  6
Continuous
 62
     7
370
    25
100
AcDbPolyline
 90
      125
 70
   128
 43
0.0
 10
711.6703953784
 20
-366.8867080155
 10
711.5465125534
 20
-361.3129780629
 10
711.1751820841
 20
-355.8965878602
 10
710.5573571703
 20
-350.6514412035
 10
709.6946237599
 20
-345.5910023089
 10
708.5891964769
 20
-340.7282612506
 10
707.2439129375
 20
-336.0757006152
 10
705.6622264653
 20
-331.6452634589
 10
703.8481972266
 20
-327.4483226506
 10
701.8064818085
 20
-323.495651677
 10
699.5423212652
 20
-319.7973969878
 10
697.0615276644
 20
-316.3630519498
 10
694.3704691677
 20
-313.2014324774
 10
691.4760536835
 20
-310.3206544025
 10
688.3857111351
 20
-307.7281126411
 10
685.1073743872
 20
-305.4304622107
 10
681.6494588835
 20
-303.433601147
 10
678.0208410433
 20
-301.7426553637
 10
674.2308354767
 20
-300.3619654944
 10
670.2891710735
 20
-299.2950757501
 10
666.2059660297
 20
-298.5447248217
 10
661.9917018742
 20
-298.112838849
 10
657.6571965626
 20
-298.0005264773
 10
653.2135767078
 20
-298.2080760107
 10
648.6722490184
 20
-298.7349546727
 10
644.0448710172
 20
-299.5798099731
 10
639.3433211173
 20
-300.7404731807
 10
634.5796681299
 20
-302.2139648895
 10
629.7661402839
 20
-303.9965026675
 10
624.9150938362
 20
-306.0835107658
 10
620.0389813534
 20
-308.4696318645
 10
615.1503197464
 20
-311.148740825
 10
610.2616581394
 20
-314.1139604131
 10
605.3855456566
 20
-317.3576789524
 10
600.5344992089
 20
-320.8715698642
 10
595.7209713628
 20
-324.6466130408
 10
590.9573183754
 20
-328.6731180005
 10
586.2557684756
 20
-332.9407487628
 10
581.6283904744
 20
-337.4385503809
 10
577.0870627849
 20
-342.1549770623
 10
572.6434429302
 20
-347.0779218076
 10
568.3089376185
 20
-352.194747488
 10
564.094673463
 20
-357.4923192856
 10
560.0114684193
 20
-362.9570384094
 10
556.0698040161
 20
-368.5748770039
 10
552.2797984495
 20
-374.3314141579
 10
548.6511806093
 20
-380.2118729232
 10
545.1932651055
 20
-386.2011582464
 10
541.9149283577
 20
-392.283895718
 10
538.8245858092
 20
-398.4444710381
 10
535.9301703251
 20
-404.6670700984
 10
533.2391118284
 20
-410.9357195761
 10
530.7583182276
 20
-417.234327938
 10
528.4941576843
 20
-423.5467267468
 10
526.4524422662
 20
-429.8567121653
 10
524.6384130275
 20
-436.1480865514
 10
523.0567265552
 20
-442.4047000373
 10
521.7114430159
 20
-448.6104919859
 10
520.6060157329
 20
-454.7495322182
 10
519.7432823224
 20
-460.8060619061
 10
519.1254574087
 20
-466.7645340247
 10
518.7541269394
 20
-472.6096532615
 10
518.6302441144
 20
-478.3264152793
 10
518.7541269394
 20
-483.900145232
 10
519.1254574087
 20
-489.3165354347
 10
519.7432823224
 20
-494.5616820914
 10
520.6060157329
 20
-499.6221209859
 10
521.7114430159
 20
-504.4848620442
 10
523.0567265552
 20
-509.1374226797
 10
524.6384130275
 20
-513.5678598359
 10
526.4524422662
 20
-517.7648006443
 10
528.4941576843
 20
-521.7174716179
 10
530.7583182276
 20
-525.4157263071
 10
533.2391118284
 20
-528.8500713451
 10
535.9301703251
 20
-532.0116908175
 10
538.8245858092
 20
-534.8924688924
 10
541.9149283577
 20
-537.4850106538
 10
545.1932651055
 20
-539.7826610842
 10
548.6511806093
 20
-541.7795221479
 10
552.2797984495
 20
-543.4704679312
 10
556.0698040161
 20
-544.8511578005
 10
560.0114684193
 20
-545.9180475447
 10
564.094673463
 20
-546.6683984732
 10
568.3089376186
 20
-547.1002844459
 10
572.6434429302
 20
-547.2125968176
 10
577.0870627849
 20
-547.0050472841
 10
581.6283904744
 20
-546.4781686222
 10
586.2557684756
 20
-545.6333133218
 10
590.9573183754
 20
-544.4726501142
 10
595.7209713628
 20
-542.9991584054
 10
600.5344992089
 20
-541.2166206274
 10
605.3855456566
 20
-539.1296125291
 10
610.2616581394
 20
-536.7434914304
 10
615.1503197464
 20
-534.0643824698
 10
620.0389813534
 20
-531.0991628818
 10
624.9150938362
 20
-527.8554443424
 10
629.7661402839
 20
-524.3415534307
 10
634.57966813
 20
-520.5665102541
 10
639.3433211173
 20
-516.5400052944
 10
644.0448710172
 20
-512.272374532
 10
648.6722490184
 20
-507.774572914
 10
653.2135767078
 20
-503.0581462326
 10
657.6571965626
 20
-498.1352014873
 10
661.9917018742
 20
-493.0183758068
 10
666.2059660297
 20
-487.7208040093
 10
670.2891710735
 20
-482.2560848855
 10
674.2308354767
 20
-476.638246291
 10
678.0208410433
 20
-470.8817091369
 10
681.6494588835
 20
-465.0012503717
 10
685.1073743872
 20
-459.0119650485
 10
688.3857111351
 20
-452.9292275769
 10
691.4760536835
 20
-446.7686522567
 10
694.3704691677
 20
-440.5460531965
 10
697.0615276644
 20
-434.2774037188
 10
699.5423212652
 20
-427.9787953569
 10
701.8064818085
 20
-421.666396548
 10
703.8481972266
 20
-415.3564111296
 10
705.6622264653
 20
-409.0650367435
 10
707.2439129375
 20
-402.8084232576
 10
708.5891964769
 20
-396.602631309
 10
709.6946237599
 20
-390.4635910766
 10
710.5573571703
 20
-384.4070613887
 10
711.1751820841
 20
-378.4485892701
 10
711.5465125534
 20
-372.6034700333
 10
711.6703953784
 20
-366.8867080155
  0
LWPOLYLINE
  5
E7
330
1F
100
AcDbEntity
  8
0
  6
Continuous
 62
     7
370
    25
100
AcDbPolyline
 90
      119
 70
   128
 43
0.0
 10
702.6901392573
 20
-372.0708995256
 10
702.5660686926
 20
-366.7624138994
 10
702.1942086902
 20
-361.6122245773
 10
701.5756133275
 20
-356.6349303305
 10
700.7120360804
 20
-351.8446398402
 10
699.6059248523
 20
-347.2549317053
 10
698.2604150358
 20
-342.8788159521
 10
696.6793206245
 20
-338.7286971563
 10
694.8671234025
 20
-334.8163392804
 10
692.8289602395
 20
-331.1528323279
 10
690.5706085305
 20
-327.7485609073
 10
688.0984698188
 20
-324.6131747957
 10
685.4195516502
 20
-321.7555615858
 10
682.5414477092
 20
-319.1838214928
 10
679.4723162942
 20
-316.9052443932
 10
676.2208571917
 20
-314.9262891614
 10
672.7962870156
 20
-313.2525653611
 10
669.2083130823
 20
-311.8888173441
 10
665.4671058937
 20
-310.8389108025
 10
661.583270308
 20
-310.1058218104
 10
657.5678154792
 20
-309.6916283881
 10
653.4321236502
 20
-309.597504612
 10
649.1879178888
 20
-309.8237172861
 10
644.8472288574
 20
-310.369625186
 10
640.4223607107
 20
-311.2336808764
 10
635.9258562182
 20
-312.4134350977
 10
631.3704612104
 20
-313.9055437082
 10
626.7690884493
 20
-315.7057771641
 10
622.134781026
 20
-317.809032508
 10
617.4806753883
 20
-320.2093478341
 10
612.8199641044
 20
-322.8999191879
 10
608.1658584668
 20
-325.8731198525
 10
603.5315510435
 20
-329.1205219676
 10
598.9301782824
 20
-332.6329204191
 10
594.3747832746
 20
-336.400358932
 10
589.878278782
 20
-340.4121582925
 10
585.4534106353
 20
-344.6569466195
 10
581.112721604
 20
-349.1226915991
 10
576.8685158426
 20
-353.7967345922
 10
572.7328240136
 20
-358.6658265161
 10
568.7173691848
 20
-363.7161654006
 10
564.8335335991
 20
-368.9334355115
 10
561.0923264105
 20
-374.3028479298
 10
557.5043524772
 20
-379.8091824727
 10
554.0797823011
 20
-385.4368308366
 10
550.8283231986
 20
-391.1698408409
 10
547.7591917836
 20
-396.9919616458
 10
544.8810878426
 20
-402.8866898173
 10
542.202169674
 20
-408.8373161081
 10
539.7300309623
 20
-414.8269728213
 10
537.4716792533
 20
-420.8386816242
 10
535.4335160903
 20
-426.8554016751
 10
533.6213188682
 20
-432.8600779274
 10
532.040224457
 20
-438.8356894738
 10
530.6947146405
 20
-444.7652977941
 10
529.5886034124
 20
-450.6320947693
 10
528.7250261653
 20
-456.419450326
 10
528.1064308026
 20
-462.1109595761
 10
527.7345708001
 20
-467.6904893183
 10
527.6105002355
 20
-473.1422237693
 10
527.7345708001
 20
-478.4507093954
 10
528.1064308026
 20
-483.6008987175
 10
528.7250261653
 20
-488.5781929644
 10
529.5886034124
 20
-493.3684834547
 10
530.6947146405
 20
-497.9581915896
 10
532.040224457
 20
-502.3343073428
 10
533.6213188682
 20
-506.4844261386
 10
535.4335160903
 20
-510.3967840145
 10
537.4716792533
 20
-514.060290967
 10
539.7300309623
 20
-517.4645623876
 10
542.202169674
 20
-520.5999484992
 10
544.8810878426
 20
-523.457561709
 10
547.7591917836
 20
-526.0293018021
 10
550.8283231986
 20
-528.3078789017
 10
554.0797823011
 20
-530.2868341335
 10
557.5043524772
 20
-531.9605579338
 10
561.0923264105
 20
-533.3243059507
 10
564.8335335991
 20
-534.3742124924
 10
568.7173691848
 20
-535.1073014845
 10
572.7328240136
 20
-535.5214949067
 10
576.8685158426
 20
-535.6156186828
 10
581.112721604
 20
-535.3894060088
 10
585.4534106353
 20
-534.8434981089
 10
589.878278782
 20
-533.9794424184
 10
594.3747832746
 20
-532.7996881972
 10
598.9301782824
 20
-531.3075795866
 10
603.5315510435
 20
-529.5073461307
 10
608.1658584668
 20
-527.4040907869
 10
612.8199641044
 20
-525.0037754607
 10
617.4806753883
 20
-522.313204107
 10
622.134781026
 20
-519.3400034424
 10
626.7690884493
 20
-516.0926013272
 10
631.3704612104
 20
-512.5802028757
 10
635.9258562182
 20
-508.8127643628
 10
640.4223607108
 20
-504.8009650023
 10
644.8472288574
 20
-500.5561766754
 10
649.1879178888
 20
-496.0904316957
 10
653.4321236502
 20
-491.4163887026
 10
657.5678154792
 20
-486.5472967788
 10
661.583270308
 20
-481.4969578943
 10
665.4671058937
 20
-476.2796877834
 10
669.2083130823
 20
-470.9102753651
 10
672.7962870156
 20
-465.4039408222
 10
676.2208571917
 20
-459.7762924583
 10
679.4723162942
 20
-454.043282454
 10
682.5414477092
 20
-448.2211616491
 10
685.4195516502
 20
-442.3264334775
 10
688.0984698188
 20
-436.3758071868
 10
690.5706085305
 20
-430.3861504736
 10
692.8289602395
 20
-424.3744416707
 10
694.8671234025
 20
-418.3577216197
 10
696.6793206245
 20
-412.3530453675
 10
698.2604150358
 20
-406.3774338211
 10
699.6059248523
 20
-400.4478255008
 10
700.7120360804
 20
-394.5810285256
 10
701.5756133275
 20
-388.7936729688
 10
702.1942086902
 20
-383.1021637187
 10
702.5660686926
 20
-377.5226339766
 10
702.6901392573
 20
-372.0708995256
  0
LWPOLYLINE
  5
E8
330
1F
100
AcDbEntity
  8
0
  6
Continuous
 62
     7
370
    25
100
AcDbPolyline
 90
       19
 70
   128
 43
0.0
 10
1126.0349691537
 20
-572.6215521949
 10
1125.910373467
 20
-566.2370375531
 10
1125.5368337802
 20
-560.0090538919
 10
1124.9150917217
 20
-553.9499662964
 10
1124.0463817028
 20
-548.0718045242
 10
1122.9324284669
 20
-542.3862391214
 10
1121.575443665
 20
-536.9045582518
 10
1119.9781214648
 20
-531.6376452853
 10
1118.1436332017
 20
-526.5959571901
 10
1116.0756210823
 20
-521.7895037713
 10
1113.7781909533
 20
-517.2278277971
 10
1111.2559041495
 20
-512.9199860531
 10
1108.5137684379
 20
-508.8745313601
 10
1105.5572280751
 20
-505.0994955942
 10
1102.3921529984
 20
-501.6023737393
 10
1099.0248271713
 20
-498.3901090071
 10
1095.4619361076
 20
-495.469079052
 10
1091.7105535977
 20
-492.8450833085
 10
1089.2663030145
 20
-491.3540990466
  0
LWPOLYLINE
  5
E9
330
1F
100
AcDbEntity
  8
0
  6
Continuous
 62
     7
370
    25
100
AcDbPolyline
 90
       54
 70
   128
 43
0.0
 10
911.7807279716
 20
-798.8014451917
 10
915.3005813603
 20
-800.678283003
 10
919.4898253201
 20
-802.5382159816
 10
923.839954171
 20
-804.085525824
 10
928.3423311346
 20
-805.31714049
 10
932.9880171584
 20
-806.2306147225
 10
937.7677886628
 20
-806.824134903
 10
942.6721558538
 20
-807.0965226522
 10
947.6913815644
 20
-807.0472371694
 10
952.8155005866
 20
-806.6763763063
 10
958.0343394562
 20
-805.9846763729
 10
963.337536652
 20
-804.9735106753
 10
968.7145631666
 20
-803.6448867895
 10
974.1547434117
 20
-802.0014425752
 10
979.6472764129
 20
-800.0464409387
 10
985.1812572544
 20
-797.7837633549
 10
990.7456987296
 20
-795.2179021606
 10
996.3295531548
 20
-792.3539516358
 10
1001.921734304
 20
-789.197597889
 10
1007.5111394192
 20
-785.7551075686
 10
1013.086671254
 20
-782.0333154203
 10
1018.6372601058
 20
-778.039610718
 10
1024.1518857944
 20
-773.7819225927
 10
1029.619599541
 20
-769.2687042901
 10
1035.0295457059
 20
-764.5089163873
 10
1040.3709833418
 20
-759.5120090026
 10
1045.6333075188
 20
-754.2879030331
 10
1050.8060703793
 20
-748.8469704577
 10
1055.8790018814
 20
-743.2000137443
 10
1060.8420301893
 20
-737.3582444028
 10
1065.6853016696
 20
-731.3332607255
 10
1070.3992004551
 20
-725.1370247597
 10
1074.9743675361
 20
-718.7818385584
 10
1079.4017193418
 20
-712.2803197556
 10
1083.6724657752
 20
-705.645376515
 10
1087.7781276644
 20
-698.8901819023
 10
1091.7105535977
 20
-692.0281477311
 10
1095.4619361076
 20
-685.072897935
 10
1099.0248271713
 20
-678.0382415188
 10
1102.3921529984
 20
-670.9381451415
 10
1105.5572280751
 20
-663.7867053874
 10
1108.5137684379
 20
-656.598120778
 10
1111.2559041495
 20
-649.3866635827
 10
1113.7781909533
 20
-642.1666514823
 10
1116.0756210823
 20
-634.9524191424
 10
1118.1436332017
 20
-627.7582897537
 10
1119.9781214648
 20
-620.598546594
 10
1121.575443665
 20
-613.4874046706
 10
1122.9324284669
 20
-606.4389824977
 10
1124.0463817028
 20
-599.4672740651
 10
1124.9150917217
 20
-592.5861210543
 10
1125.5368337802
 20
-585.809185358
 10
1125.910373467
 20
-579.1499219544
 10
1126.0349691537
 20
-572.6215521949
  0
LWPOLYLINE
  5
EA
330
1F
100
AcDbEntity
  8
0
  6
Continuous
 62
     7
370
    25
100
AcDbPolyline
 90
       35
 70
   128
 43
0.0
 10
1016.4334180698
 20
-509.3499235286
 10
1016.3088223831
 20
-502.9654088868
 10
1015.9352826963
 20
-496.7374252256
 10
1015.3135406378
 20
-490.6783376302
 10
1014.4448306189
 20
-484.800175858
 10
1013.330877383
 20
-479.1146104552
 10
1011.9738925811
 20
-473.6329295855
 10
1010.3765703809
 20
-468.366016619
 10
1008.5420821178
 20
-463.3243285238
 10
1006.4740699984
 20
-458.517875105
 10
1004.1766398694
 20
-453.9561991308
 10
1001.6543530656
 20
-449.6483573868
 10
998.912217354
 20
-445.6029026939
 10
995.9556769912
 20
-441.8278669279
 10
992.7906019145
 20
-438.330745073
 10
989.4232760874
 20
-435.1184803408
 10
985.8603850237
 20
-432.1974503857
 10
982.1090025138
 20
-429.5734546423
 10
978.1765765804
 20
-427.2517028111
 10
974.0709146913
 20
-425.2368045156
 10
969.8001682579
 20
-423.5327601498
 10
965.3728164522
 20
-422.1429529361
 10
960.7976493712
 20
-421.0701422081
 10
956.0837505857
 20
-420.316457932
 10
951.2404791054
 20
-419.8833964784
 10
946.2774507975
 20
-419.7718176506
 10
941.2045192954
 20
-419.9819429781
 10
936.0317564349
 20
-420.5133552764
 10
930.7694322579
 20
-421.3649994757
 10
925.427994622
 20
-422.5351847153
 10
920.018048457
 20
-424.0215877006
 10
914.5503347105
 20
-425.8212573161
 10
909.0357090219
 20
-427.9306204844
 10
903.48512017
 20
-430.3454892601
 10
902.4299825568
 20
-430.8372267801
  0
LWPOLYLINE
  5
EB
330
1F
100
AcDbEntity
  8
0
  6
Continuous
 62
     7
370
    25
100
AcDbPolyline
 90
       70
 70
   128
 43
0.0
 10
765.941075552
 20
-667.26856621
 10
766.1885574799
 20
-669.9262774884
 10
766.9339685346
 20
-675.8963839928
 10
767.9255462783
 20
-681.6796830341
 10
769.161322025
 20
-687.2646924073
 10
770.6388422566
 20
-692.6403235932
 10
772.3551734932
 20
-697.7959037737
 10
774.3069081181
 20
-702.7211970217
 10
776.4901711429
 20
-707.4064246232
 10
778.9006279009
 20
-711.8422844926
 10
781.5334926533
 20
-716.0199696407
 10
784.383538091
 20
-719.9311856603
 10
787.4451057124
 20
-723.568167194
 10
790.7121170585
 20
-726.9236933517
 10
794.1780857807
 20
-729.9911020469
 10
797.8361305188
 20
-732.7643032233
 10
801.6789885637
 20
-735.2377909469
 10
805.6990302764
 20
-737.4066543368
 10
809.8882742362
 20
-739.2665873153
 10
814.238403087
 20
-740.8138971578
 10
818.7407800507
 20
-742.0455118237
 10
823.3864660745
 20
-742.9589860562
 10
828.1662375788
 20
-743.5525062368
 10
833.0706047699
 20
-743.824893986
 10
838.0898304805
 20
-743.7756085031
 10
843.2139495026
 20
-743.40474764
 10
848.4327883723
 20
-742.7130477066
 10
853.735985568
 20
-741.7018820091
 10
859.1130120827
 20
-740.3732581233
 10
864.5531923277
 20
-738.7298139089
 10
870.045725329
 20
-736.7748122725
 10
875.5797061705
 20
-734.5121346886
 10
881.1441476456
 20
-731.9462734944
 10
886.7280020709
 20
-729.0823229695
 10
892.3201832201
 20
-725.9259692228
 10
897.9095883353
 20
-722.4834789023
 10
903.4851201701
 20
-718.761686754
 10
909.0357090219
 20
-714.7679820518
 10
914.5503347105
 20
-710.5102939265
 10
920.018048457
 20
-705.9970756238
 10
925.427994622
 20
-701.237287721
 10
930.7694322579
 20
-696.2403803364
 10
936.0317564349
 20
-691.0162743669
 10
941.2045192954
 20
-685.5753417915
 10
946.2774507975
 20
-679.9283850781
 10
951.2404791054
 20
-674.0866157365
 10
956.0837505857
 20
-668.0616320592
 10
960.7976493712
 20
-661.8653960934
 10
965.3728164522
 20
-655.5102098921
 10
969.8001682579
 20
-649.0086910893
 10
974.0709146913
 20
-642.3737478487
 10
978.1765765804
 20
-635.618553236
 10
982.1090025138
 20
-628.7565190648
 10
985.8603850237
 20
-621.8012692688
 10
989.4232760874
 20
-614.7666128525
 10
992.7906019145
 20
-607.6665164753
 10
995.9556769912
 20
-600.5150767211
 10
998.912217354
 20
-593.3264921117
 10
1001.6543530656
 20
-586.1150349165
 10
1004.1766398694
 20
-578.895022816
 10
1006.4740699984
 20
-571.6807904762
 10
1008.5420821178
 20
-564.4866610874
 10
1010.3765703809
 20
-557.3269179277
 10
1011.9738925811
 20
-550.2157760044
 10
1013.330877383
 20
-543.1673538315
 10
1014.4448306189
 20
-536.1956453988
 10
1015.3135406378
 20
-529.3144923881
 10
1015.9352826963
 20
-522.5375566917
 10
1016.3088223831
 20
-515.8782932882
 10
1016.4334180698
 20
-509.3499235286
  0
LWPOLYLINE
  5
EC
330
1F
100
AcDbEntity
  8
0
  6
Continuous
 62
     7
370
    25
100
AcDbPolyline
 90
       17
 70
   128
 43
0.0
 10
987.7955934317
 20
-525.882187793
 10
987.6712568235
 20
-520.2880412471
 10
987.2985661693
 20
-514.8518107873
 10
986.6784781607
 20
-509.5874511391
 10
985.8125845545
 20
-504.5084758384
 10
984.7031080874
 20
-499.6279225418
 10
983.3528967695
 20
-494.9583195597
 10
981.7654165739
 20
-490.5116536959
 10
979.9447425394
 20
-486.299339478
 10
977.8955483103
 20
-482.3321898561
 10
975.6230941387
 20
-478.6203884465
 10
973.1332133818
 20
-475.17346339
 10
970.4322975279
 20
-472.0002628939
 10
967.5272797893
 20
-469.1089325184
 10
964.4256173047
 20
-466.506894267
 10
961.1352719974
 20
-464.2008275346
 10
959.4163975947
 20
-463.1574493067
  0
LWPOLYLINE
  5
ED
330
1F
100
AcDbEntity
  8
0
  6
Continuous
 62
     7
370
    25
100
AcDbPolyline
 90
       48
 70
   128
 43
0.0
 10
822.4275312236
 20
-700.454837599
 10
824.1792386818
 20
-701.4156349442
 10
827.8211481624
 20
-703.1127746681
 10
831.6250365333
 20
-704.4985220094
 10
835.5811392677
 20
-705.5693197747
 10
839.6793011064
 20
-706.3224192414
 10
843.909002127
 20
-706.7558872139
 10
848.2593847474
 20
-706.8686109863
 10
852.719281598
 20
-706.6603011981
 10
857.2772441875
 20
-706.1314925777
 10
861.9215722912
 20
-705.2835425692
 10
866.6403439855
 20
-704.1186278481
 10
871.4214462513
 20
-702.6397387337
 10
876.2526060675
 20
-700.8506715133
 10
881.1214219161
 20
-698.7560186967
 10
886.0153956168
 20
-696.3611572277
 10
890.9219644091
 20
-693.6722346812
 10
895.8285332015
 20
-690.696153483
 10
900.7225069022
 20
-687.4405531907
 10
905.5913227508
 20
-683.9137908836
 10
910.422482567
 20
-680.1249197101
 10
915.2035848327
 20
-676.083665648
 10
919.9223565271
 20
-671.8004025385
 10
924.5666846308
 20
-667.2861254567
 10
929.1246472203
 20
-662.552422487
 10
933.5845440708
 20
-657.6114449771
 10
937.9349266913
 20
-652.4758763455
 10
942.1646277118
 20
-647.158899523
 10
946.2627895506
 20
-641.674163113
 10
950.218892285
 20
-636.0357463552
 10
954.0227806559
 20
-630.2581229845
 10
957.6646901365
 20
-624.3561240772
 10
961.1352719974
 20
-618.3448999799
 10
964.4256173047
 20
-612.2398814187
 10
967.5272797893
 20
-606.0567398886
 10
970.4322975279
 20
-599.8113474252
 10
973.1332133818
 20
-593.5197358615
 10
975.6230941387
 20
-587.198055674
 10
977.8955483103
 20
-580.8625345253
 10
979.9447425394
 20
-574.5294356071
 10
981.7654165739
 20
-568.2150158936
 10
983.3528967695
 20
-561.9354844096
 10
984.7031080874
 20
-555.7069606223
 10
985.8125845545
 20
-549.5454330631
 10
986.6784781607
 20
-543.4667182848
 10
987.2985661693
 20
-537.486420261
 10
987.6712568235
 20
-531.619890331
 10
987.7955934317
 20
-525.882187793
  0
LWPOLYLINE
  5
EE
330
1F
100
AcDbEntity
  8
0
  6
Continuous
 62
     7
370
    25
100
AcDbPolyline
 90
       19
 70
   128
 43
0.0
 10
987.0884866505
 20
-525.4739837371
 10
986.9641500424
 20
-519.8798371912
 10
986.5914593881
 20
-514.4436067314
 10
985.9713713795
 20
-509.1792470832
 10
985.1054777733
 20
-504.1002717825
 10
983.9960013062
 20
-499.2197184859
 10
982.6457899883
 20
-494.5501155038
 10
981.0583097927
 20
-490.10344964
 10
979.2376357582
 20
-485.8911354221
 10
977.1884415291
 20
-481.9239858002
 10
974.9159873575
 20
-478.2121843905
 10
972.4261066006
 20
-474.7652593341
 10
969.7251907467
 20
-471.592058838
 10
966.8201730081
 20
-468.7007284625
 10
963.7185105236
 20
-466.0986902111
 10
960.4281652162
 20
-463.7926234787
 10
956.9575833553
 20
-461.7884479056
 10
953.3156738747
 20
-460.0913081817
 10
952.6118282163
 20
-459.8065896491
  0
LWPOLYLINE
  5
EF
330
1F
100
AcDbEntity
  8
0
  6
Continuous
 62
     7
370
    25
100
AcDbPolyline
 90
       50
 70
   128
 43
0.0
 10
816.1229212115
 20
-696.237929079
 10
816.7112047324
 20
-696.6971885828
 10
820.0015500397
 20
-699.0032553152
 10
823.4721319006
 20
-701.0074308883
 10
827.1140413812
 20
-702.7045706122
 10
830.9179297521
 20
-704.0903179535
 10
834.8740324865
 20
-705.1611157188
 10
838.9721943253
 20
-705.9142151855
 10
843.2018953458
 20
-706.347683158
 10
847.5522779663
 20
-706.4604069304
 10
852.0121748168
 20
-706.2520971422
 10
856.5701374063
 20
-705.7232885218
 10
861.21446551
 20
-704.8753385133
 10
865.9332372044
 20
-703.7104237922
 10
870.7143394701
 20
-702.2315346778
 10
875.5454992863
 20
-700.4424674574
 10
880.4143151349
 20
-698.3478146408
 10
885.3082888356
 20
-695.9529531718
 10
890.214857628
 20
-693.2640306253
 10
895.1214264203
 20
-690.2879494271
 10
900.015400121
 20
-687.0323491348
 10
904.8842159696
 20
-683.5055868277
 10
909.7153757858
 20
-679.7167156542
 10
914.4964780516
 20
-675.675461592
 10
919.2152497459
 20
-671.3921984826
 10
923.8595778496
 20
-666.8779214008
 10
928.4175404391
 20
-662.1442184311
 10
932.8774372897
 20
-657.2032409212
 10
937.2278199101
 20
-652.0676722895
 10
941.4575209307
 20
-646.7506954671
 10
945.5556827694
 20
-641.2659590571
 10
949.5117855038
 20
-635.6275422993
 10
953.3156738747
 20
-629.8499189285
 10
956.9575833553
 20
-623.9479200213
 10
960.4281652162
 20
-617.936695924
 10
963.7185105236
 20
-611.8316773628
 10
966.8201730081
 20
-605.6485358327
 10
969.7251907467
 20
-599.4031433693
 10
972.4261066006
 20
-593.1115318056
 10
974.9159873575
 20
-586.7898516181
 10
977.1884415291
 20
-580.4543304694
 10
979.2376357582
 20
-574.1212315512
 10
981.0583097927
 20
-567.8068118376
 10
982.6457899883
 20
-561.5272803536
 10
983.9960013062
 20
-555.2987565664
 10
985.1054777733
 20
-549.1372290072
 10
985.9713713795
 20
-543.0585142289
 10
986.5914593881
 20
-537.0782162051
 10
986.9641500423
 20
-531.2116862751
 10
987.0884866505
 20
-525.4739837371
  0
ARC
  5
F0
330
1F
100
AcDbEntity
  8
0
  6
Continuous
 62
     7
370
    25
100
AcDbCircle
 10
1061.2585525716
 20
-627.0279183224
 30
0.0
 40
87.77427407695248
100
AcDbArc
 50
358.8760717445
 51
19.2070580036
  0
LWPOLYLINE
  5
F1
330
1F
100
AcDbEntity
  8
0
  6
Continuous
 62
     7
370
    25
100
AcDbPolyline
 90
       37
 70
   128
 43
0.0
 10
1031.7099131908
 20
-792.9194339787
 10
1035.1105876892
 20
-792.2275409134
 10
1039.6506770395
 20
-791.0363512716
 10
1044.250227734
 20
-789.5297795727
 10
1048.8962018466
 20
-787.712096358
 10
1053.5754298588
 20
-785.5884540479
 10
1058.2746479905
 20
-783.1648723374
 10
1062.9805357973
 20
-780.448221132
 10
1067.679753929
 20
-777.4462010749
 10
1072.3589819413
 20
-774.1673217179
 10
1077.0049560538
 20
-770.620877401
 10
1081.6045067484
 20
-766.8169209057
 10
1086.1445960986
 20
-762.7662349601
 10
1090.6123547282
 20
-758.4803016737
 10
1094.9951182897
 20
-753.9712699898
 10
1099.2804633638
 20
-749.2519212488
 10
1103.4562426742
 20
-744.3356329574
 10
1107.5106195207
 20
-739.2363408688
 10
1111.4321013318
 20
-733.9684994806
 10
1115.2095722412
 20
-728.5470410615
 10
1118.8323245971
 20
-722.9873333243
 10
1122.2900893144
 20
-717.3051358647
 10
1125.5730649834
 20
-711.5165554889
 10
1128.6719456528
 20
-705.6380005566
 10
1131.5779472087
 20
-699.6861344707
 10
1134.282832274
 20
-693.677828442
 10
1136.778933558
 20
-687.630113667
 10
1139.0591755905
 20
-681.5601330501
 10
1141.1170947777
 20
-675.485092611
 10
1142.946857724
 20
-669.4222127117
 10
1144.5432777677
 20
-663.388679244
 10
1145.9018296826
 20
-657.4015949142
 10
1147.0186625058
 20
-651.4779307631
 10
1147.8906104532
 20
-645.6344780604
 10
1148.5152018937
 20
-639.8878007077
 10
1148.890666355
 20
-634.2541882863
 10
1149.0159395422
 20
-628.7496098827
  0
LWPOLYLINE
  5
F2
330
1F
100
AcDbEntity
  8
0
  6
Continuous
 62
     7
370
    25
100
AcDbPolyline
 90
       16
 70
   128
 43
0.0
 10
1244.4753550024
 20
-683.8571574307
 10
1244.3500818152
 20
-678.4972163704
 10
1243.9746173539
 20
-673.2971059886
 10
1243.3500259134
 20
-668.2715665632
 10
1242.478077966
 20
-663.4348435318
 10
1241.3612451428
 20
-658.8006471113
 10
1240.0026932279
 20
-654.3821134349
 10
1238.4062731842
 20
-650.1917673163
 10
1236.5765102378
 20
-646.2414867469
 10
1234.5185910507
 20
-642.5424692262
 10
1232.2383490182
 20
-639.1052000212
 10
1229.7422477341
 20
-635.9394224449
 10
1227.0373626689
 20
-633.0541102379
 10
1224.131361113
 20
-630.457442131
 10
1221.0324804436
 20
-628.1567786621
 10
1218.5819281439
 20
-626.626556622
  0
LWPOLYLINE
  5
F3
330
1F
100
AcDbEntity
  8
0
  6
Continuous
 62
     7
370
    25
100
AcDbPolyline
 90
       46
 70
   128
 43
0.0
 10
1093.5920865643
 20
-843.1387722172
 10
1094.4245099336
 20
-843.6066875275
 10
1097.8822746509
 20
-845.2966348219
 10
1101.5050270068
 20
-846.673601721
 10
1105.2824979162
 20
-847.7336850627
 10
1109.2039797273
 20
-848.4738799255
 10
1113.2583565738
 20
-848.8920881467
 10
1117.4341358842
 20
-848.9871242696
 10
1121.7194809583
 20
-848.758718904
 10
1126.1022445198
 20
-848.2075194897
 10
1130.5700031494
 20
-847.3350884614
 10
1135.1100924997
 20
-846.1438988196
 10
1139.7096431942
 20
-844.6373271207
 10
1144.3556173067
 20
-842.819643906
 10
1149.034845319
 20
-840.6960015959
 10
1153.7340634507
 20
-838.2724198854
 10
1158.4399512575
 20
-835.55576868
 10
1163.1391693892
 20
-832.5537486229
 10
1167.8183974015
 20
-829.274869266
 10
1172.464371514
 20
-825.728424949
 10
1177.0639222085
 20
-821.9244684537
 10
1181.6040115588
 20
-817.8737825082
 10
1186.0717701884
 20
-813.5878492217
 10
1190.4545337499
 20
-809.0788175378
 10
1194.739878824
 20
-804.3594687968
 10
1198.9156581344
 20
-799.4431805054
 10
1202.9700349809
 20
-794.3438884169
 10
1206.891516792
 20
-789.0760470286
 10
1210.6689877014
 20
-783.6545886095
 10
1214.2917400573
 20
-778.0948808723
 10
1217.7495047746
 20
-772.4126834128
 10
1221.0324804436
 20
-766.6241030369
 10
1224.131361113
 20
-760.7455481046
 10
1227.0373626689
 20
-754.7936820187
 10
1229.7422477341
 20
-748.7853759901
 10
1232.2383490182
 20
-742.737661215
 10
1234.5185910507
 20
-736.6676805982
 10
1236.5765102378
 20
-730.592640159
 10
1238.4062731842
 20
-724.5297602597
 10
1240.0026932279
 20
-718.4962267921
 10
1241.3612451428
 20
-712.5091424622
 10
1242.478077966
 20
-706.5854783111
 10
1243.3500259134
 20
-700.7420256084
 10
1243.9746173539
 20
-694.9953482558
 10
1244.3500818152
 20
-689.3617358343
 10
1244.4753550024
 20
-683.8571574307
  0
ENDSEC
  0
SECTION
  2
OBJECTS
  0
DICTIONARY
  5
C
330
0
100
AcDbDictionary
281
     1
  3
ACAD_GROUP
350
D
  3
ACAD_LAYOUT
350
1A
  3
ACAD_MLINESTYLE
350
17
  3
ACAD_PLOTSETTINGS
350
19
  3
ACAD_PLOTSTYLENAME
350
E
  3
ACAD_SCALELIST
350
47
  3
DWGPROPS
350
F4
  0
DICTIONARY
  5
D
102
{ACAD_REACTORS
330
C
102
}
330
C
100
AcDbDictionary
281
     1
  0
DICTIONARY
  5
1A
102
{ACAD_REACTORS
330
C
102
}
330
C
100
AcDbDictionary
281
     1
  3
Layout1
350
1E
  3
Layout2
350
26
  3
Model
350
22
  0
DICTIONARY
  5
17
102
{ACAD_REACTORS
330
C
102
}
330
C
100
AcDbDictionary
281
     1
  3
Standard
350
18
  0
DICTIONARY
  5
19
102
{ACAD_REACTORS
330
C
102
}
330
C
100
AcDbDictionary
281
     1
  0
ACDBDICTIONARYWDFLT
  5
E
102
{ACAD_REACTORS
330
C
102
}
330
C
100
AcDbDictionary
281
     1
  3
Normal
350
F
100
AcDbDictionaryWithDefault
340
F
  0
DICTIONARY
  5
47
102
{ACAD_REACTORS
330
C
102
}
330
C
100
AcDbDictionary
281
     1
  3
A0
350
48
  3
A1
350
49
  3
A2
350
4A
  3
A3
350
4B
  3
A4
350
4C
  3
A5
350
4D
  3
A6
350
4E
  3
A7
350
4F
  3
A8
350
50
  3
A9
350
51
  3
B0
350
52
  3
B1
350
53
  3
B2
350
54
  3
B3
350
55
  3
B4
350
56
  3
B5
350
57
  3
B6
350
58
  3
B7
350
59
  3
B8
350
5A
  3
B9
350
5B
  3
C0
350
5C
  3
C1
350
5D
  3
C2
350
5E
  3
C3
350
5F
  3
C4
350
60
  3
C5
350
61
  3
C6
350
62
  3
C7
350
63
  3
C8
350
64
  3
C9
350
65
  3
D0
350
66
  3
D1
350
67
  3
D2
350
68
  0
XRECORD
  5
F4
102
{ACAD_REACTORS
330
C
102
}
330
C
100
AcDbXrecord
280
     1
  1
DWGPROPS COOKIE
  2

  3

  4

  6

  7

  8
b.kav
  9

300
=
301
=
302
=
303
=
304
=
305
=
306
=
307
=
308
=
309
=
 40
0.0
 41
2459935.584742002
 42
2459935.584742188
  1

 90
        0
  0
LAYOUT
  5
1E
102
{ACAD_REACTORS
330
1A
102
}
330
1A
100
AcDbPlotSettings
  1

  2
none_device
  4

  6

 40
0.0
 41
0.0
 42
0.0
 43
0.0
 44
0.0
 45
0.0
 46
0.0
 47
0.0
 48
0.0
 49
0.0
140
0.0
141
0.0
142
1.0
143
1.0
 70
   688
 72
     1
 73
     0
 74
     5
  7

 75
    16
147
1.0
148
0.0
149
0.0
100
AcDbLayout
  1
Layout1
 70
     1
 71
     1
 10
0.0
 20
0.0
 11
420.0
 21
297.0
 12
0.0
 22
0.0
 32
0.0
 14
1.0000000000E+20
 24
1.0000000000E+20
 34
1.0000000000E+20
 15
-1.0000000000E+20
 25
-1.0000000000E+20
 35
-1.0000000000E+20
146
0.0
 13
0.0
 23
0.0
 33
0.0
 16
1.0
 26
0.0
 36
0.0
 17
0.0
 27
1.0
 37
0.0
 76
     0
330
1B
  0
LAYOUT
  5
26
102
{ACAD_REACTORS
330
1A
102
}
330
1A
100
AcDbPlotSettings
  1

  2
none_device
  4

  6

 40
0.0
 41
0.0
 42
0.0
 43
0.0
 44
0.0
 45
0.0
 46
0.0
 47
0.0
 48
0.0
 49
0.0
140
0.0
141
0.0
142
1.0
143
1.0
 70
   688
 72
     1
 73
     0
 74
     5
  7

 75
    16
147
1.0
148
0.0
149
0.0
100
AcDbLayout
  1
Layout2
 70
     1
 71
     2
 10
0.0
 20
0.0
 11
0.0
 21
0.0
 12
0.0
 22
0.0
 32
0.0
 14
0.0
 24
0.0
 34
0.0
 15
0.0
 25
0.0
 35
0.0
146
0.0
 13
0.0
 23
0.0
 33
0.0
 16
1.0
 26
0.0
 36
0.0
 17
0.0
 27
1.0
 37
0.0
 76
     0
330
23
  0
LAYOUT
  5
22
102
{ACAD_REACTORS
330
1A
102
}
330
1A
100
AcDbPlotSettings
  1

  2
none_device
  4
Letter_(8.50_x_11.00_Inches)
  6

 40
6.35
 41
6.35
 42
6.35000508
 43
6.35000508
 44
215.9
 45
279.4
 46
0.0
 47
0.0
 48
0.0
 49
0.0
140
0.0
141
0.0
142
1.0
143
1.0
 70
  1712
 72
     1
 73
     0
 74
     0
  7

 75
     0
147
1.0
148
0.0
149
0.0
100
AcDbLayout
  1
Model
 70
     1
 71
     0
 10
0.0
 20
0.0
 11
279.4
 21
215.9
 12
0.0
 22
0.0
 32
0.0
 14
0.0
 24
0.0
 34
0.0
 15
279.4
 25
215.9
 35
0.0
146
0.0
 13
0.0
 23
0.0
 33
0.0
 16
1.0
 26
0.0
 36
0.0
 17
0.0
 27
1.0
 37
0.0
 76
     0
330
1F
331
29
  0
MLINESTYLE
  5
18
102
{ACAD_REACTORS
330
17
102
}
330
17
100
AcDbMlineStyle
  2
Standard
 70
     0
  3

 62
   256
 51
90.0
 52
90.0
 71
     2
 49
0.5
 62
   256
  6
BYLAYER
 49
-0.5
 62
   256
  6
BYLAYER
  0
ACDBPLACEHOLDER
  5
F
102
{ACAD_REACTORS
330
E
102
}
330
E
  0
SCALE
  5
48
102
{ACAD_REACTORS
330
47
102
}
330
47
100
AcDbScale
 70
     0
300
1:1
140
1.0
141
1.0
290
     1
  0
SCALE
  5
49
102
{ACAD_REACTORS
330
47
102
}
330
47
100
AcDbScale
 70
     0
300
1:2
140
1.0
141
2.0
290
     0
  0
SCALE
  5
4A
102
{ACAD_REACTORS
330
47
102
}
330
47
100
AcDbScale
 70
     0
300
1:4
140
1.0
141
4.0
290
     0
  0
SCALE
  5
4B
102
{ACAD_REACTORS
330
47
102
}
330
47
100
AcDbScale
 70
     0
300
1:5
140
1.0
141
5.0
290
     0
  0
SCALE
  5
4C
102
{ACAD_REACTORS
330
47
102
}
330
47
100
AcDbScale
 70
     0
300
1:8
140
1.0
141
8.0
290
     0
  0
SCALE
  5
4D
102
{ACAD_REACTORS
330
47
102
}
330
47
100
AcDbScale
 70
     0
300
1:10
140
1.0
141
10.0
290
     0
  0
SCALE
  5
4E
102
{ACAD_REACTORS
330
47
102
}
330
47
100
AcDbScale
 70
     0
300
1:16
140
1.0
141
16.0
290
     0
  0
SCALE
  5
4F
102
{ACAD_REACTORS
330
47
102
}
330
47
100
AcDbScale
 70
     0
300
1:20
140
1.0
141
20.0
290
     0
  0
SCALE
  5
50
102
{ACAD_REACTORS
330
47
102
}
330
47
100
AcDbScale
 70
     0
300
1:30
140
1.0
141
30.0
290
     0
  0
SCALE
  5
51
102
{ACAD_REACTORS
330
47
102
}
330
47
100
AcDbScale
 70
     0
300
1:40
140
1.0
141
40.0
290
     0
  0
SCALE
  5
52
102
{ACAD_REACTORS
330
47
102
}
330
47
100
AcDbScale
 70
     0
300
1:50
140
1.0
141
50.0
290
     0
  0
SCALE
  5
53
102
{ACAD_REACTORS
330
47
102
}
330
47
100
AcDbScale
 70
     0
300
1:100
140
1.0
141
100.0
290
     0
  0
SCALE
  5
54
102
{ACAD_REACTORS
330
47
102
}
330
47
100
AcDbScale
 70
     0
300
2:1
140
2.0
141
1.0
290
     0
  0
SCALE
  5
55
102
{ACAD_REACTORS
330
47
102
}
330
47
100
AcDbScale
 70
     0
300
4:1
140
4.0
141
1.0
290
     0
  0
SCALE
  5
56
102
{ACAD_REACTORS
330
47
102
}
330
47
100
AcDbScale
 70
     0
300
8:1
140
8.0
141
1.0
290
     0
  0
SCALE
  5
57
102
{ACAD_REACTORS
330
47
102
}
330
47
100
AcDbScale
 70
     0
300
10:1
140
10.0
141
1.0
290
     0
  0
SCALE
  5
58
102
{ACAD_REACTORS
330
47
102
}
330
47
100
AcDbScale
 70
     0
300
100:1
140
100.0
141
1.0
290
     0
  0
SCALE
  5
59
102
{ACAD_REACTORS
330
47
102
}
330
47
100
AcDbScale
 70
     0
300
1/128" = 1'-0"
140
0.0078125
141
12.0
290
     0
  0
SCALE
  5
5A
102
{ACAD_REACTORS
330
47
102
}
330
47
100
AcDbScale
 70
     0
300
1/64" = 1'-0"
140
0.015625
141
12.0
290
     0
  0
SCALE
  5
5B
102
{ACAD_REACTORS
330
47
102
}
330
47
100
AcDbScale
 70
     0
300
1/32" = 1'-0"
140
0.03125
141
12.0
290
     0
  0
SCALE
  5
5C
102
{ACAD_REACTORS
330
47
102
}
330
47
100
AcDbScale
 70
     0
300
1/16" = 1'-0"
140
0.0625
141
12.0
290
     0
  0
SCALE
  5
5D
102
{ACAD_REACTORS
330
47
102
}
330
47
100
AcDbScale
 70
     0
300
3/32" = 1'-0"
140
0.09375
141
12.0
290
     0
  0
SCALE
  5
5E
102
{ACAD_REACTORS
330
47
102
}
330
47
100
AcDbScale
 70
     0
300
1/8" = 1'-0"
140
0.125
141
12.0
290
     0
  0
SCALE
  5
5F
102
{ACAD_REACTORS
330
47
102
}
330
47
100
AcDbScale
 70
     0
300
3/16" = 1'-0"
140
0.1875
141
12.0
290
     0
  0
SCALE
  5
60
102
{ACAD_REACTORS
330
47
102
}
330
47
100
AcDbScale
 70
     0
300
1/4" = 1'-0"
140
0.25
141
12.0
290
     0
  0
SCALE
  5
61
102
{ACAD_REACTORS
330
47
102
}
330
47
100
AcDbScale
 70
     0
300
3/8" = 1'-0"
140
0.375
141
12.0
290
     0
  0
SCALE
  5
62
102
{ACAD_REACTORS
330
47
102
}
330
47
100
AcDbScale
 70
     0
300
1/2" = 1'-0"
140
0.5
141
12.0
290
     0
  0
SCALE
  5
63
102
{ACAD_REACTORS
330
47
102
}
330
47
100
AcDbScale
 70
     0
300
3/4" = 1'-0"
140
0.75
141
12.0
290
     0
  0
SCALE
  5
64
102
{ACAD_REACTORS
330
47
102
}
330
47
100
AcDbScale
 70
     0
300
1" = 1'-0"
140
1.0
141
12.0
290
     0
  0
SCALE
  5
65
102
{ACAD_REACTORS
330
47
102
}
330
47
100
AcDbScale
 70
     0
300
1-1/2" = 1'-0"
140
1.5
141
12.0
290
     0
  0
SCALE
  5
66
102
{ACAD_REACTORS
330
47
102
}
330
47
100
AcDbScale
 70
     0
300
3" = 1'-0"
140
3.0
141
12.0
290
     0
  0
SCALE
  5
67
102
{ACAD_REACTORS
330
47
102
}
330
47
100
AcDbScale
 70
     0
300
6" = 1'-0"
140
6.0
141
12.0
290
     0
  0
SCALE
  5
68
102
{ACAD_REACTORS
330
47
102
}
330
47
100
AcDbScale
 70
     0
300
1'-0" = 1'-0"
140
12.0
141
12.0
290
     0
  0
ENDSEC
  0
EOF
